Dame amor

Angeles Del Infierno

Composição de: robert alvarez
tom: Em
Riff  A
-::------------------------------------------:----------
-::------------------------------------------:----------
-::------------------------------------------:----------
-::----------------------------------------2-:---------------
-::-5--------4-----------2--------3---2----2-:-----------5----
-::----0--0-----0--0--0-----0--0--------3--0-:--0--0--0------


E|-----------------------------------------------| :-----
B|-----------------------------------------------| :----
G|-----------------------------------------------| :--
D|-------------------------------------5---7---9-| :-----
A|--------4-------------2---------3----3---5---7-| :----------
E|-0--0-------0--0--0-------0--0-----------------| :--0--0--0-------

E|-------------------------------------------| :----------
B|-------------------------------------------| :----------
G|-------------------------------------------| :----------
D|-----------------------------------------2-| :---------------
A|--5--------4-----------2--------3---2----2-| :-----------5----
E|-----0--0-----0--0--0-----0--0--------3--0-| :--0--0--0------

E|-----------------------------------------------| ::-
B|-----------------------------------------------| ::-
G|-----------------------------------------------| ::-
D|-------------------------------------5---7---9-| ::-
A|--------4-------------2---------3----3---5---7-| ::-
E|-0--0-------0--0--0-------0--0-----------------| ::-

   Riff B
-::------------:---------------:---------------:------------
-::------------:---------------:---------------:------------
-::------------:---------------:---------------:------------
-::------------:---------------:---------------:------------
-::-2--------5-:-------------5-:-------------5-:------5--7--
-::-0--0--0--3-:-0-0-0--0-0--3-:-0-0-0--0-0--3-:-0-0--3--5--


E|------------| :---------------:---------------:------------
B|------------| :---------------:---------------:------------
G|------------| :---------------:---------------:------------
D|------------| :---------------:---------------:------------
A|-2--------5-| :-------------5-:-------------5-:------5--5--
E|-0--0--0--3-| :-0-0-0--0-0--3-:-0-0-0--0-0--3-:-0-0--3--3--

E|-------------| :---------------:---------------:------------
B|-------------| :---------------:---------------:------------
G|-------------| :---------------:---------------:------------
D|-------------| :---------------:---------------:------------
A|--2--------5-| :-------------5-:-------------5-:------5--7--
E|--0--0--0--3-| :-0-0-0--0-0--3-:-0-0-0--0-0--3-:-0-0--3--5--

E|------------| :---------------:---------------:---------------------::
B|------------| :---------------:---------------:---------------------::
G|------------| :---------------:---------------:---------------------::
D|------------| :---------------:---------------:------5----4---------::
A|-2--------5-| :-------------5-:-------------5-:------3----2--5--7---::
E|-0--0--0--3-| :-0-0-0--0-0--3-:-0-0-0--0-0--3-:-0-0----------3--5---::


Verso 1

A A          C C   D D              A  C  A
  Te estoy buscando   por la ciudad

         A A           C C       G A
voy solitario hacia ningun lugar

A  A         C  C    D D           A  C  A
  nadie se sienta     en mi camino

           A A      C C           D D E
pasan las horas a punto esta de amanecer


Verso 2 (con riff B)

??????????????????? en un rincón

sonrisas que se venden a millón

trucos y juegos sucios se dan lugar

te busca en todas partes ¿donde estas?

Estribillo:


A A     A A        C C C D
eeeehh  eeh  eeh  dame amor

A A     A A      G  G  G  A
eeeeh   eeh  eeh esta noche


Verso 3

A A       C C    D D               A C A
  En una  barra    de un viejo bar

         A A      C C         G   A
y trago a trago solo pienso en ti

A A          C C   D D               A C A
   estoy cansado       no  puedo mas

         A  A      C  C             D  D  E
pasan las horas y a punto estoy de enloquecer
Página 1 / 1

Letras e título
Acordes e artista

resetar configurações
OK