Cifra Club

Aprenda

El Principio Del Fin

Angeles Del Infierno

Cifra: Principal (violão e guitarra)
tom: Cm
Pre solo:
E|-------------------------------|
B|-------------------------------|
G|---------------------5-4-0-2---|
D|---------3-2-0-5-3-0-----------|
A|---3-2-0-----------------------|
E|-------------------------------|

Solo:
E|---17(18)-------------------------------------| |
B|---------17----10-12p10-10-12p10-10-13p10-10---|
G|-----------14----------------------------------|
D|-----------------------------------------------|
A|-----------------------------------------------|
E|-----------------------------------------------|

E|----------------------------------------------------|
B|-12p10----10----------------------------------------|
G|-------12---12-11-12-11-9p11p9----9-----------------|
D|-------------------------------12---12-11-12--------|
A|--------------------------------------------11-12---|
E|----------------------------------------------------|

E|-----------------------------------------------|
B|-----------------------------------------------|
G|-----------------------------------------------|
D|---------10------------------------------------|
A|---10-12---12-12--------12-15p12-12-15p12-12---|
E|-12----------------12p15-----------------------|

E|-------------------------------------------------------|
B|-------------------------------------------------------|
G|-------------------------------------------------------|
D|-12v-12v-12v-12v-12v-12v-12v-12-12-12-12-12-12-12-12---|
A|-------------------------------------------------------|
E|-------------------------------------------------------|

E|---------------------------------------------------------|
B|---------------------------------------------------------|
G|---------------------------------------------------------|
D|---------10----------------------------------------------|
A|---10-12----12-12--------12-15p12-12-15p12-12-15p12-12---|
E|-12-----------------12p15--------------------------------|

E|-------------------------------------------------------------------|
B|-10-12p10-10-13p10-10-12p10-10-13p10-10-12p10-10-13p10-10----------|
G|-------------------------------------------------------------------|
D|------------------------------------------------------------12(13)-|
A|-------------------------------------------------------------------|
E|-------------------------------------------------------------------|

E|------------------------------------------------------------------------|
B|------------------------------------------------------------------------|
G|-----------------------------------------------------------------10---9-|
D|-14-14-14-13-13-13-12-12-12-10-----------10---------------10------------|
A|-----------------------------------10-12---12-12-----10-12---12---------|
E|--------------------------------12----------------12--------------------|

E|-------------|------------------------------------------------|
B|-------------|------------------------------------------------|
G|-------------|-14-14-14-14---16-16-16-16---17-17-17-17---16---|
D|-------------|------------------------------------------------|
A|-------3-2---|------------------------------------------------|
E|-0-3-5-------|------------------------------------------------|

E|-----------------------------------------|-----------------------------|
B|-----------------------------------------|-6-5-------------------------|
G|-14-14-14-14---16-16-16-16--17-17-17-17--|-----7-5---------------------|
D|-----------------------------------------|---------7-6-5---------------|
A|-----------------------------------------|---------------7-6-5---------|
E|-----------------------------------------|---------------------8-7-5---|
Compositor não encontrado.
2 exibições
    • ½ Tom
    • Am
    • Bbm
    • Bm
    • Cm
    • C#m
    • Dm
    • Ebm
    • Em
    • Fm
    • F#m
    • Gm
    • G#m
  • Adicionar à lista

    0 comentários

    Ver todos os comentários

    Conseguiu tocar?

    0 Tocaram 0 Ainda não

    Grave um vídeo tocando El Principio Del Fin e nos envie!

    00:00 / 00:00
    Outros vídeos desta música
    Repetir Qualidade Automático
    Outros vídeos desta música
    00:00 / 00:00
    Automático

    Cifra Club Pro

    Aproveite o Cifra Club com benefícios exclusivos e sem anúncios
    Cifra Club Pro
    Aproveite o Cifra Club com benefícios exclusivos e sem anúncios
    OK