Es Un Pacto Con El Diablo

Angeles Del Infierno

tom: C
intro: 

riff 1                                      (x2) 
|------------------------------------------ 
|------------------------------------------ 
|------------------------------------------ 
|---7--7---7--7--5--4--5--4--5--4---------- 
|---7--7---7--7--5--4--5--4--5--4---------- 
|---5--5---5--5--3--2--3--2--3--2---------- 

riff 2                                       (x2) 
|-------5-5-5------5-5-5-------------------- 
|-------5-5-5------5-5-5-------------------- 
|------------------------------------------- 
|---7--7------7--7-------5--4--5--4--5--4--- 
|---7--7------7--7-------5--4--5--4--5--4--- 
|---5--5------5--5-------3--2--3--2--3--2--- 
(en las estrofas se repiten los riff 2) 

a media noche solo en tu habitacion 
invocas mi nombre en momentos de tension 
quieres volar ver el mundo a tus pies 
yo te dare entera satisfaccion 
no lo olvides nunca 

coro: 
es un pacto con el diablo     (x3) 
|----------------------------------- 
|----------------------------------- 
|---7-7---5-5---4-4---2-2----------- 
|---7-7---5-5---4-4---2-2----------- 
|---5-5---3-3---2-2---0-0---3-4-0--- 
|----------------------------------- 

(se repite el riff 2) 

Sientes tus venas ya no aguantar mas, 
algo enchufa tu sangre te vas a suicidar, 
lo que yo te propuse fue un pacto sin mas, 
y ahora ha llegado la hora de pagar... 

No lo olvides nunca... 

rep coro.(x3) 

y luego esto 
|----------------------------------------- 
|----------------------------------------- 
|---7-7---5-5---4-4---2-2----------------- 
|---7-7---5-5---4-4---2-2---5-4-5-4-5-4--- 
|---5-5---3-3---2-2---0-0---3-2-3-2-3-2--- 
|----------------------------------------- 

solo: 

|----------------------------------------------------------------------- 
|-------------------------------------5-5-5-5-5-5-5-5-------------------
|-------------5-----------5-----------7h9h7h9h7h9h7h9-5-----------------
|---7-----5-7---5-5---5-7---5-5---5-7-------------------7-7-------------
|----------------------------------------------------------------------- 
|----------------------------------------------------------------------- 

|---------------------------------------8-8---8---8-8---8---8-8---8---8-8--8- 
|---------------------------------------8-8---8---8-8---8---8-8---8---8-8--8- 
|-------------------5----------5-----------8h9-8h9---8h9-8h9---8h9-8h9--8h9-- 
|---5h7h5h7h5h7h5-7--5-5---5-7---5-5----------------------------------------- 
|---------------------------------------------------------------------------- 
|----------------------------------------------------------------------------

|------10-10------10------10-10-----10------10-10------10-----10-10------10- 
|------10-10------10------10-10-----10------10-10------10-----10-10------10- 
|--8h9------10h11---10h11------10h11--10h11------10h11---10h11-----10h11---- 
|--------------------------------------------------------------------------- 
|--------------------------------------------------------------------------- 
|--------------------------------------------------------------------------- 

|---12-12------12------12-12-----12------12-12------12-----12-12------12---- 
|---12-12------12------12-12-----12------12-12------12-----12-12------12---- 
|--------12h13---12h13------12h13--12h13------12h13---12h13-----12h13------- 
|--------------------------------------------------------------------------- 
|--------------------------------------------------------------------------- 
|--------------------------------------------------------------------------- 

|---5-5-----5-----5-5------5-----5-5--------------  (x2) 
|---5-5-----5-----5-5------5-----5-5-------------- 
|------7h8----7h8------7h8---7h8----7h8-7~~~~~~--- 
|------------------------------------------------- 
|------------------------------------------------- 
|------------------------------------------------- 

rep coro. 

queja o sugerencia al correo un saludo alos metaleros inrianos 
y al grupo I.N.R.I. con alex(bateria) 
jefry(2 da voz  )  daigoro(bajo) ochoa(segunda) 
y quien escribe(primera) ah y estrenando nueva vocalista... melissa
Página 1 / 1

Letras e título
Acordes e artista

resetar configurações
OK