Heavy Rock

Angeles Del Infierno

tom: F#
  Intro
E|----------------------|
B|----------------------|
G|---44444444444-4~~----|
D|---44444444444-4~~----|
A|---22222222222-2~~----|
E|----------------------|

  Verso
E|-------------------------------------------|
B|-------------------------------------------|
G|-------------------------------------------|
D|----4---4-4-----4---4-4-----4---4-4---4----|
A|--0-2-0-2-2---0-2-0-2-2---0-2-0-2-2-0-2----|
E|-------------------------------------------|

E|-------------------------------------------|
B|-------------------------------------------|
G|-------------------------------------------|
D|----4---4-4-----4---4-4-----4---4-4--------|
A|--0-2-0-2-2---0-2-0-2-2---0-2-0-2-2--------|
E|-------------------------------------------|


choro

   corre.....              heavyrock.......
E|-----------------------------------------------------|
B|-----------------------------------------------------|
G|--7-4-4-4-4---7-4-4-4-4---2--2-4--4---2--2-4--4------|
D|--7-4-4-4-4---7-4-4-4-4---2--2-4--4---2--2-4--4------|
A|--5-2-2-2-2---5-2-2-2-2---0--0-2--2---0--0-2--2------|
E|-----------------------------------------------------|

   corre.....                rock.....
E|--------------------------------------|
B|--------------------------------------|
G|--7-4-4-4-4---7-4-4-4-4---4-----------|
D|--7-4-4-4-4---7-4-4-4-4---4-4--4~-----|
A|--5-2-2-2-2---5-2-2-2-2---2-4--4~-----|
E|----------------------------2--2~-----|

   antes del solo
E|---------------------------------------|
B|---------------------------------------|
G|--9-----9---7-----7---6-----6---4-4----|
D|--9------9--7------7--6------6--4-4----|
A|--7-777-----5-555-----4-444-----2-2----|
E|---------------------------------------|

E|-----------------------------|
B|-----------------------------|
G|--9-----9---7-----7----------|
D|--9------9--7------7--4-4----|
A|--7-777-----5-555-----4-4----|
E|----------------------2-2----|

     solo
E|---------------------------------------|
B|---------------------------------------|
G|---------------------------------------|
D|----4---4-4-----4---4-4-----4---4-4----|
A|--0-2-0-2-2---0-2-0-2-2---0-2-0-2-2----| etc
E|---------------------------------------|

E|----------------|
B|----------------|
G|--9----7--------|
D|--9----7--------|
A|--7----5--------|
E|----------------|

E|---------------------------------------|
B|---------------------------------------|
G|---------------------------------------|
D|----4---4-4-----4---4-4-----4---4-4----|
A|--0-2-0-2-2---0-2-0-2-2---0-2-0-2-2----| etc
E|---------------------------------------|

E|-------------------|
B|-------------------|
G|--9----7-----------|
D|--9----7---4-4-----|
A|--7----5---4-4-----|
E|-----------2-2-----|

    gtr lider
E|---------------------------|
B|---------------------------|
G|--2-4-2-5-4---2-4-2-5-4----|
D|---------------------------|
A|---------------------------|
E|---------------------------|

    gtr ritmica
E|---------------------------|
B|---------------------------|
G|---------------------------|
D|----4---4-4-----4---4-4----|
A|--0-2-0-2-2---0-2-0-2-2----|
E|---------------------------|

    grt lider
E|-----------------------|
B|-----------------------|
G|---4-2-----------4-----|
D|-------4-2-------4-----|
A|-----------4-2-0-2-----|
E|-----------------------|
Página 1 / 1

Letras e título
Acordes e artista

resetar configurações
OK