Lo Tomas o Lo Dejas

Angeles Del Infierno

tom: F
Aqui les ba de los angeles del infierno para que la gocen 
esta es muy sencilla .... 
                                         INTRO 

comienza la bateria y luego entra la guitarra con el bajo 
Es to es lo que lleba todo la cancion lo tenes que saber el ritmo y los tiempos 

e|---------------------------------------------------------5-------------------------- 
B|-------------------------------------------------------6---------------------------- 
G|---7-------7--------3---3----------5--5---------7--7-----7--5----7------------------ 
D|---7-------7--------3---3----------5--5---------7--7-----7--5----7------------------ 
A|---5-------5--------1---1----------3--3---------5--5-----5--3----5------------------ 
E|------------------------------------------------------------------------------------
   
 Del pre coro no estoy muy seguro pero creo que es lo mismo  
e|---------------------------------------------------------5-------------------------- 
B|-------------------------------------------------------6----------------------------
G|---7-------7--------3---3----------5--5---------7--7-----7--5----7------------------ 
D|---7-------7--------3---3----------5--5---------7--7-----7--5----7------------------ 
A|---5-------5--------1---1----------3--3---------5--5-----5--3----5------------------ 
E|------------------------------------------------------------------------------------
    Despues hace esto para entrar al coro 
e|--------8--10------------------------------------------------------------------------
B|--8--10------------------------------------------------------------------------------ 
G|-------------------------------------------------------------------------------------
D|-------------------------------------------------------------------------------------
A|-------------------------------------------------------------------------------------
E|-------------------------------------------------------------------------------------
   EL coro hace lo mismo solo con ritmo diferente 

e|---------------------------------------------------------5--------------------------
B|-------------------------------------------------------6---------------------------- 
G|---7-------7--------3---3----------5--5---------7--7-----7--5----7------------------ 
D|---7-------7--------3---3----------5--5---------7--7-----7--5----7------------------ 
A|---5-------5--------1---1----------3--3---------5--5-----5--3----5------------------ 
E|------------------------------------------------------------------------------------

bueno creo que con eso es sufisiente para que la saque el solo  se los doy despues 
tengo que sacarlo bien .pero es una escala de RE 5
Página 1 / 1

Letras e título
Acordes e artista

resetar configurações
OK