No Juegues Con Fuego

Angeles Del Infierno

tom: D
intro 
   Tienes que ponerle mucha atencion al ritmo. 
e|-------------------------------------------------------------------------------------
B|-------------------------------------------------------------------------------------
G|------5---5----2-----5---5--2-------------------------------------------------------- 
D|------5---5----2-----5---5--2---------2----------------------------------------------
A|------3---3----0-----3---3--0---------0---------------------------------------------- 
E|-----------------------------------3--0----------------------------------------------

e|------------------------------------------------------------------------------------
B|------------------------------------------------------------------------------------ 
G|------5---5----2-----5---5--2------------7------------------------------------------
D|------5---5----2-----5---5--2------------7------------------------------------------ 
A|------3---3----0-----3---3--0------------5------------------------------------------ 
E|-----------------------------------3--0---------------------------------------------

la intro la repites como 4 veces 

riff 2 Esta parte la haces con paltmutin y dejas la sombra ( )y los= =son abiertos 
        tienes que poner mucha atencion  en el ritmo.. 

e|---------------------------------------------------------------------------------
B|---------------------------------------------------------------------------------
G|--------------------------------------------------------------------------------- 
D|---7--7--7--7----=7=---(7)-----=5=----(5)----=7=---(7)-----7-7-7---7-(7)--------- 
A|---7--7--7--7----=7=---(7)-----=5=----(5)----=7=---(7)-----7-7-7---7-(7)--------- 
E|---5--5--5--5----=5=----(5)----=3=----(3)----=5=---(5)-----5-5-5---5-(5)---------

cuando comienza ha cantar lo sigue el riff 2 

e|---------------------------------------------------------------------------------
B|---------------------------------------------------------------------------------
G|---------------------------------------------------------------------------------
D|---7--7--7--7----=7=---(7)-----=5=----(5)----=7=---(7)-----7-7-7---7-(7)--------- 
A|---7--7--7--7----=7=---(7)-----=5=----(5)----=7=---(7)-----7-7-7---7-(7)--------- 
E|---5--5--5--5----=5=----(5)----=3=----(3)----=5=---(5)-----5-5-5---5-(5)---------

                                            pre coro 

        Victimas de tu amor  no quiero ser 
e|-----------------------------------------------------------------------------------
B|-----------------------------------------------------------------------------------
G|---5----------7--------------------------------------------------------------------
D|---5----------5----------------7-7-7----------------------------------------------- 
A|---3----------5----------------7-7-7-----------------------------------------------
E|--------------------------------5-5-5---------------------------------------------- 

      con fuego no debes jugar                                 por que te puedes quemarrrr 
e|------------------------------------------------------------------------------------
B|------------------------------------------------------------------------------------
G|--5----------------7-----------------9------------9--(9)----------------------------
D|--5----------------7-----------------9------------9--(9)---------------------------- 
A|--3----------------5-----------------7------------7--(7)----------------------------
E|-----------------------------5--3--0-----5-3-0-------------------------------------- 
                             
                                           coro  es la misma intro 

e|-----------------------------------------0-------------------------------------------
B|----------------------------------------2--------------------------------------------
G|------5---5----2-----5---5--2---------2---------------------------------------------- 
D|------5---5----2-----5---5--2---------2---------------------------------------------- 
A|------3---3----0-----3---3--0---------0---------------------------------------------- 
E|-----------------------------------3--0----------------------------------------------

    Lo anterior lo repites muchas veces 

e|------------------------------------------------------------------------------------
B|------------------------------------------------------------------------------------
G|------5---5----2-----5---5--2------------7------------------------------------------ 
D|------5---5----2-----5---5--2------------7------------------------------------------ 
A|------3---3----0-----3---3--0------------5------------------------------------------ 
E|-----------------------------------3--0---------------------------------------------

 y vuelves al riff 2. 

  Repites todo para el solo ya lo saque perome falta detallitos 

por el momento eso es todo te recomiemdo que pongas el disco y lo sigas con la guitarra 
  afinala en 'MI' 
Página 1 / 1

Letras e título
Acordes e artista

resetar configurações
OK