Cifra Club

Aprenda

Pensando En Ti

Angeles Del Infierno

Cifra: Versão 4 (violão e guitarra)
tom: D
E|--------------------------19^(21)-19^(21)-------|
B|------------------19^(21)-----------------15(v)-|
G|-19^(20)-19^(20)--------------------------------|

E|------------------------------------------------|
B|-14-15-15h17-15-17------7-7h8-7-----------------|
G|--------------------7/9---------9-7-9-7---------|
D|----------------------------------------12(v)---|

E|------------------------------------------------|
B|------------------------------------------------|
G|-12-----------9-10-9-9h10p9-10------------------|
D|----10(v)--10------------------12(v)------------|

E|----------------------------|
B|----------------------------|
G|-11| ---9-10-9-10-9-10-8^(9)|
D|-11| -----------------------|

E|------------------------------------------------|
B|------------------------------------------------|
G|------------------------------------------------|
D|-------------------10-------12-14-15-15-14-12-14|
A|-------10-12-12/14-----12-----------------------|
E|-10-12------------------------------------------|

E|-12---------------------------------------------|
B|-15^(16)--12-13---12-13-12-15--12-13-12| -10---|
G|------------------------------------------------|

E|-----------------|
B|-----------------|
G|-----------------|
D|-5--7--5--7---7--|
A|-5--7--5--7---7--|
E|-3--5--3--5---5--|

E|-15-------------------------------------...|
B|-17^(19)--15-17--15-17-15-17--15^(17)-15...|

Ahí termina el solo. Los puntos significan que
el solo muere con el sonido, así que ahí
pueden improvisar un poco.
Composição de Cristian Corrales
    • ½ Tom
    • A
    • Bb
    • B
    • C
    • Db
    • D
    • Eb
    • E
    • F
    • F#
    • G
    • Ab
  • Adicionar à lista

    0 comentários

    Ver todos os comentários

    Conseguiu tocar?

    0 Tocaram 0 Ainda não

    Grave um vídeo tocando Pensando En Ti e nos envie!

    00:00 / 00:00
    Outros vídeos desta música
    Repetir Qualidade Automático
    Outros vídeos desta música
    00:00 / 00:00
    Automático

    Cifra Club Pro

    Aproveite o Cifra Club com benefícios exclusivos e sem anúncios
    Cifra Club Pro
    Aproveite o Cifra Club com benefícios exclusivos e sem anúncios
    OK