Cifra Club

Aprenda

Todo marcha bien

Angeles Del Infierno

Cifra: Principal (violão e guitarra)
tom: Am
Intro ( x2 )
::-------------------------:---------------------------::
::-------------------------:---------------------------::
::-------------------------:---------------------------::
::-------------------------:---------------------------::
::-2------2------2------2-3:-3------3------3------5-3--::
::-0--0-0-0--0-0-0--0-0-0-1:-1--1-1-1--1-1-1--1-1-3-1--::

Riff A ( x2 )
   Guitarra 1
::------7-8-7----:---------------:---------------:-7-8-7------7----::
::-10------------:-----8-10-8----:-------------10:--------10-----9-::
::-------------9-:-10------------:-7---9-10-9----:-----------------::
::---------------:------------10-:---------------:-----------------::
::---------------:---------------:---------------:-----------------::
::---------------:---------------:---------------:-----------------::
::                                                                 ::
:: Guitarra 2                                                      ::
::---------------:---------------:---------------:-----------------::
::---------------:---------------:---------------:-----------------::
::-9-------------:---------------:---------------:-----------------::
::-7-----------9-:-10----------5-:-7-----------9-:---------------9-::
::-------------7-:-8-----------3-:-5-----------7-:-9-------------7-::
::---------------:---------------:---------------:-7---------------::

   Verso 1

E                   C   A
No hay de que preocuparse
G       C   A
todo marcha bien
E             C  A
Ahora somos felices
G       C   A
todo marcha bien


::------------------------------------:-------------------------------:
::------------------------------------:-------------------------------:
::------------------------------------:-------------------------------:
::------------------------------------:-------------------------------:
::-3------3------3----------3-5--3--5-:-3------3------3----------3--5-:
::-1--1-1-1--1-1-1--1-1-1-1-1-3--1--3-:-1--1-1-1--1-1-1--1-1-1-1-1--3-:
   Y nos sobra el dinero                y el trabajo tan bien

:------------------------------------:-------------------------------:
:------------------------------------:-------------------------------:
:------------------------------------:-------------------------------:
:------------------------------------:-----------------------------7-:
:-3------3------3----------3-5--3--5-:-3------3------3----------3--5-:
:-1--1-1-1--1-1-1--1-1-1-1-1-3--1--3-:-1--1-1-1--1-1-1--1-1-1-1-1----:
  nadie engaña nadie roba              y se matan por placer


  Verso 2

E                C  A
Nos joden y nos reímos
G       C   A
todo marcha bien
E                   C  A
nos importa todo un pijo
G       C   A
todo marcha bien


::------------------------------------:-------------------------------:
::------------------------------------:-------------------------------:
::------------------------------------:-------------------------------:
::------------------------------------:-------------------------------:
::-3------3------3----------3-5--3--5-:-3------3------3----------3--5-:
::-1--1-1-1--1-1-1--1-1-1-1-1-3--1--3-:-1--1-1-1--1-1-1--1-1-1-1-1--3-:
   mañana un nuevo discurso             que nadie va a entender

:------------------------------------:-------------------------------:
:------------------------------------:-------------------------------:
:------------------------------------:-------------------------------:
:------------------------------------:-----------------------------7-:
:-3------3------3----------3-5--3--5-:-3------3------3----------3--5-:
:-1--1-1-1--1-1-1--1-1-1-1-1-3--1--3-:-1--1-1-1--1-1-1--1-1-1-1-1----:
  prometo y luego no cumplo            volvemos a obedecer


  ESTRIBILLO ( X 2 )

::---------------:---------------:---------------:-----------------::
::---------------:---------------:---------------:-----------------::
::-9-------------:---------------:---------------:-----------------::
::-7-----------9-:-10----------5-:-7-----------9-:---------------9-::
::-------------7-:-8-----------3-:-5-----------7-:-9-------------7-::
::---------------:---------------:---------------:-7---------------::
  complaciente    sonriente    no he olvidado  enseñar los  dientes


::-----------------------::
::-----------------------::
::-----------------------::
::-----------------------::
::-x-x-x-x-x-x-x-x-x-x-x-::
::-----------------------::


   Verso 3

E               C     A
Estamos todos de acuerdo
G       C   A
todo marcha bien
E                  C  A
a ver si dura cien años
G       C   A
todo marcha bien
Composição de Göran Elmquist / Robert Alvarez
    • ½ Tom
    • Am
    • Bbm
    • Bm
    • Cm
    • C#m
    • Dm
    • Ebm
    • Em
    • Fm
    • F#m
    • Gm
    • G#m
  • Adicionar à lista

    0 comentários

    Ver todos os comentários

    Conseguiu tocar?

    0 Tocaram 0 Ainda não

    Grave um vídeo tocando Todo marcha bien e nos envie!

    00:00 / 00:00
    Outros vídeos desta música
    Repetir Qualidade Automático
    Outros vídeos desta música
    00:00 / 00:00
    Automático

    Cifra Club Pro

    Aproveite o Cifra Club com benefícios exclusivos e sem anúncios
    Cifra Club Pro
    Aproveite o Cifra Club com benefícios exclusivos e sem anúncios
    OK