Cifra Club

Todos somos angeles

Angeles Del Infierno

Cifra: Principal (violão e guitarra)
tom: Ab
Intro
                                                       X2
E|-----------------------------------------------------| |
B|-----------------------------------------------------| |
G|-----------------------------------------------------| |
D|-----------------------------------------------------| |
A|--------4--5p4~~---------4-4~---------4-5p4~~-4------| |
E|-4-4-7-4-7--------4-4-7-4-7----4-4-7-4-7-------7-(4)-| |

Verso
Con distorsion
O puedes hacerlo con bends
E|-------14b----------------/18b~~~-----------|
B|--------------------------------------------|
G|--------------------------------------------|
D|-6------------------------------------------|
A|-6--------~b55555555555b~---------~b555555b~|
E|-4------------------------------------------|

Pre-coro
Puede que no sirva para nada…
                         X4
E|-------------------------| |
B|-------------------------| |
G|-------------------------| |
D|-6-6-6-6-6/9-9-9-8-9-8-9-| |
A|-4-4-4-4-4/7-7-7-6-7-6-7-| |
E|-------------------------| |

Coro
Todos somos angeles…
E|----------------------------------------------|
B|----------------------------------------------|
G|----------------------------------------------|
D|-2-2--2-2--2-2----------2-2--2-2--2-2---------|
A|-2-2--2-2--2-2----------2-2--2-2--2-2---------|
E|-0-0--0-0--0-0-0000000--0-0--0-0--0-0-0000000-|

Verso
(no estoy perdido…)
con distorsion
E|-------14b----------------/18b~~~-----------|
B|--------------------------------------------|
G|--------------------------------------------|
D|-6------------------------------------------|
A|-6--------~b55555555555b~---------~b555555b~|
E|-4------------------------------------------|


Pre-coro
Puede que no sirva para nada…
                         X4
E|-------------------------| |
B|-------------------------| |
G|-------------------------| |
D|-6-6-6-6-6/9-9-9-8-9-8-9-| |
A|-4-4-4-4-4/7-7-7-6-7-6-7-| |
E|-------------------------| |

Coro
Todos somos angeles…
E|----------------------------------------------|
B|----------------------------------------------|
G|----------------------------------------------|
D|-222--222--222---------222--222--222----------|
A|-222--222--222---------222--222--222----------|
E|-000--000--000-0000000-000--000--000-0000000--|

Solo (1.26)
Ab5       Db5  Ab5      Db5     Ab5     Db5   Ab5    Db5   Ab5
E|----------/9~~----------/9~/14~---------/9~~---------/9~/14~--|
B|--------------------------------------------------------------|
G|--------------------------------------------------------------|
D|--------------------------------------------------------------|
A|--4-2/4~~-------4-2/4~~----------4-2/4~~-------4-2/4~~--------|
E|-7-------------7----------------7-------------7---------------|

Db5           Ab5  Db5          Eb5  Db5         Ab5
E|------16----------------16----------------16-----------|
B|-16-14---16-14-----16-14---15-13-----16-14---16-14-----|
G|--------------14~---------------11~---------------14~--|
D|-------------------------------------------------------|
A|-------------------------------------------------------|
E|-------------------------------------------------------|

 Db5          Bb5
E|------16------18~~~|
B|-16-14---15-14-----|
G|-------------------|
D|-------------------|
A|-------------------|
E|-------------------|

Coro
Todos somos angeles…
E|----------------------------------------------|
B|----------------------------------------------|
G|----------------------------------------------|
D|-2-2--2-2--2-2----------2-2--2-2--2-2---------|
A|-2-2--2-2--2-2----------2-2--2-2--2-2---------|
E|-0-0--0-0--0-0-0000000--0-0--0-0--0-0-0000000-|

Pre-coro
Puede que no sirva para nada…
                         X4
E|-------------------------| |
B|-------------------------| |
G|-------------------------| |
D|-6-6-6-6-6/9-9-9-8-9-8-9-| |
A|-4-4-4-4-4/7-7-7-6-7-6-7-| |
E|-------------------------| |

E|---------------------------------------------------| |
B|---------------------------------------------------| |
G|---------------------------------------------------| |
D|---------------------------------------------------| |
A|--------4--5p4~~---------4-4~---------4-5p4~~-4----| |
E|-4-4-7-4-7--------4-4-7-4-7----4-4-7-4-7-------7-4-| |
 
FIN
00:00 / 00:00
Outros vídeos desta música
Repetir
Outros vídeos desta música
Composição de Göran Elmquist / Robert Alvarez
    • ½ Tom
    • A
    • Bb
    • B
    • C
    • Db
    • D
    • Eb
    • E
    • F
    • F#
    • G
    • Ab
  • Adicionar à lista

    0 comentários

    Ver todos os comentários

    Conseguiu tocar?

    0 Tocaram 0 Ainda não

    Grave um vídeo tocando Todos somos angeles e nos envie!

    Entre para oCifra Club PRO

    Tenha acesso a benefícios exclusivos no App e no Site

    • Chega de anúncios

    • Prioridade de compra em lançamentos

    • Mais recursos no app do Afinador

    • Atendimento Prioritário

    • Descontos nos produtos Cifra Club

    • Ajude a produzir mais conteúdo

    00:00 / 00:00

    Cifra Club Pro

    Aproveite o Cifra Club com benefícios exclusivos e sem anúncios
    Cifra Club Pro
    Aproveite o Cifra Club com benefícios exclusivos e sem anúncios
    OK