Cifra Club

Murió La Flor

Angeles Negros

Cifra: Principal
exibições 2.419
Tom: C
e|------------------------------------------------| 
B|-------5----------------------------------------| 
G|-----5---5-----7---7---5----5-------------------| 
D|-7-9-------9-7---9----9---7---7--9--------------| 
A|------------------------------------------------| 
E|------------------------------------------------| 

e|------------------------------------------------| 
B|-------5----------------------------------------| 
G|-----5---5-----7---7----5-----------------------| 
D|-7-9-------9-7---9----9------6-9-6-7------------| 
A|------------------------------------------------| 
E|------------------------------------------------| 
  
e|------------------------------------------------| 
B|-------0----------------------------------------| 
G|-----0---0-----2---2---0----0-------------------| 
D|-2-4-------4-2---4----4---2---2--4--------------| 
A|------------------------------------------------| 
E|------------------------------------------------| 
  
e|------------------------------------------------| 
B|-------0----------------------------------------| 
G|-----0---0-----2---2---0------------------------| 
D|-2-4-------4-2---4----4----1-4-1-2--------------| 
A|------------------------------------------------| 
E|------------------------------------------------| 
 
Am                         Dm 
   Desde hace tiempo espero yo  
           Am         E7 
   oir tu voz, sentir tu amor 
 Am                      Dm 
   y ya no se lo que es reir  
           Am  E7           E7 
   no se vivir, si tu no estas.  

                         Dm 
   Cada rumor que llega a mi  
             Am           E7 
   me hace soñar que estas aqui 
 Am                        Dm 
   siento tu cuerpo junto ami  
            Am   E7           Am 
   y al despertar  tu ya no estas. 

             Dm         G7 
   Murio la flor y en mi  
               C    Am 
   tu esencia se quedo   
           Dm      E7 
   y tu risa infantil  
              Am   A7 
   creo escuchar. 

                Dm   G7 
   Las noches frias son  
              C     Am 
   no brilla mas el sol  
              C       E7 
   desde que tu no estas  
               E7 
   llorando estoy.  

               Dm         G7 
   Murio la flor y en mi  
               C    Am 
   tu esencia se quedo   
           Dm      E7 
   y tu risa infantil  
              Am   A7 
   creo escuchar. 

                Dm   G7 
   Las noches frias son  
              C     Am 
   no brilla mas el sol  
              Dm      E7 
   desde que tu no estas  
               Am 
   llorando estoy. 

   
Acordes para:
    Colaboração e revisão:
    • Silvio Mitio

    0 comentários

      mostrar mais comentários

      Conseguiu tocar?

      0tocaram0ainda não

      Grave um vídeo tocando Murió La Flor e mande pra gente!

      00:00 / 00:00
      outros vídeos desta música
      repetirqualidadeautomática
      Outro vídeos desta música
        00:00 / 00:00
        automática
        OK