Cifra Club

Call To Arms

Angels & Airwaves

Tab de baixo: Principal
~ = deixar a nota soar
h = hammer on
r = rest

Intro                continuar tocando esse riff até o verso
-----     --------------------------------------------------|
-----     --------------------------------------------------|
-7~--     -77----77----77----77----77----77----77-----------|
-----     ----0-----0-----0-----0-----0-----0-----0---------|

Verso (tem que pegar a batida)
---------------------------------------|
---------------------------------------|
-77---77---77--------------------------|
----0----0-----6h7~--------------------|   x4

Variação do Verso
---------------------------------------|
---------------------------------------|
-77---77---77--r----r------------------|
----0----0--------0---0----------------|   x2

Verso
---------------------------------------|
---------------------------------------|
-77---77---77--------------------------|
----0----0-----6h7~--------------------|   x4


Refrão
---------------------------------------------|
---------------------------------------------|
-77777777------------44444444----------------|
-----------55555555------------4h5555555-----|  x2


Interlúdio                continuar tocando esse riff até o verso
-----     --------------------------------------------------|
-----     --------------------------------------------------|
-7~--     -77----77----77----77----77----77----77-----------|
-----     ----0-----0-----0-----0-----0-----0-----0---------|


Verso
---------------------------------------|
---------------------------------------|
-77---77---77--------------------------|
----0----0-----6h7~--------------------|   x4

Refrão
----------------------------------------------------|
----------------------------------------------------|
-77---77---77---------------44444444----------------|
----0----0------4h55555555------------4h5555555-----|  x 4

Ponte              continuar tocando esse riff até o "outro"
-----     --------------------------------------------------|
-----     --------------------------------------------------|
-7~--     -77----77----77----77----77----77----77-----------|
-----     ----0-----0-----0-----0-----0-----0-----0---------|


Outro 4:00     tocar esse riff até o fim
----------------------------------------------|
----------------------------------------------|
-77---77---77--------------44444444-----------|
----0----0------4h5~-----------------4h5~-----|

Fim
-------|
-------|
-7~----|
-------|
exibições 103
Composição: Tom DeLonge

0 comentários

mostrar mais comentários

Conseguiu tocar?

0 tocaram 0 ainda não

Grave um vídeo tocando Call To Arms e mande pra gente!

00:00 / 00:00
outros vídeos desta música
repetir qualidade Automático
Outros vídeos desta música
00:00 / 00:00
Automático
OK