Cifra Club

Aprenda

Distraction

Angels & Airwaves

Tab de baixo: Versão 2
Intro/Chorus- "I'll be your distraction..."
Come in at 1:09
G|---------------------------------------------------------------------------|
D|---------------------------------------------------------------------------|
A|--33333332--555555/7/8--33333332--555555/8/7--33333332--555555/8/7---------|
E|---------------------------------------------------------------------------|

G|---------------------------------------------------------------------------|
D|---------------------------------------------------------------------------|
A|33333332--555555/7/3-------------------------------------------------------|
E|---------------------------------------------------------------------------|

Verse-1:30 "There's a field nearby..." (Listen for timing)
G|---------------------------------------------------------------------------|
D|---------------------------------------------------------------------------|
A|--3~--3~-------------------------------------------------------------------|
E|---------------------------------------------------------------------------|

Verse (Continued)-1:51 "The planes felw in..."
G|---------------------------------------------------------------------------|
D|---------------------------------------------------------------------------|
A|--3333333---5555555/7--333333---88888877-----------------------------------|
E|---------3-------------------3---------------------------------------------|

Play Intro/Chorus again-2:12 "I'll be your distraction..."

Play Verse again-2:34 "The friendship we made..."

Play Verse (Continued)- 2:55 "And the boys went down..."

Play Intro/Chorus-3:16 "I'll be your distraction"

Bridge-3:38
G|---------------------------------------------------------------------------|
D|---------------------------------------------------------------------------|
A|-3~--5~--7~--8/5~--5-3~--5~--7~--7-8~--------------------------------------|
E|----3---3--------------3---3-----------------------------------------------|

Play Intro/Chorus again-3:59 (x2) "I'll be your distraction"
Colaboração e revisão:
  • Jean Sapia

0 comentários

Mostrar mais comentários

Conseguiu tocar?

0 Tocaram 0 Ainda não

Grave um vídeo tocando Distraction e mande pra gente!

00:00 / 00:00
outros vídeos desta música
repetir qualidade Automático
Outros vídeos desta música
00:00 / 00:00
Automático

Cifra Club Pro

Aproveite o Cifra Club com benefícios exclusivos e sem anúncios
7 dias grátis
Cifra Club Pro
Aproveite o Cifra Club com benefícios exclusivos e sem anúncios
7 dias grátis
OK