Epic Holiday

Angels & Airwaves

Tom: B
(intro riff)

E|------------------------------------------------------------------|
B|------------------------------------------------------------------| 
G|-11--11--11--11-11--11-11--11-11--11--11--11--11-11--11-11--11-11-| 
D|--9---9---9---9--9---9--9---9--9---9---9---9---9--9---9--9---9--9-|
A|--x---x---x---x--x---x--x---x--x---x---x---x---x--x---x--x---x--x-|
E|--7---7---7---7--7---7--7---7--7---9---9---9---9--9---9--9---9--9-|

E|------------------------------------------------------------------|
B|------------------------------------------------------------------|
G|-11--11--11--11-11--11-11--11-11--11--11--11--11-11--11-11--11-11-|
D|--9---9---9---9--9---9--9---9--9---9---9---9---9--9---9--9---9--9-|
A|--x---x---x---x--x---x--x---x--x---7---7---7---7--7---7--7---7--7-|
E|-11--11--11--11-11--11-11--11-11----------------------------------|

G|-----------------------------------------------------------------|
D|-----------------------------------------------------------------|
A|-----------------------------------------------------------------|
E|-7-7-7-7-7-7-7-7-7-7-7-7-7-7-7-7-9-9-9-9-9-9-9-9-9-9-9-9-9-9-9-9-|

G|-------------------------------------------------|
D|-------------------------------------------------|
A|-------------------------------------------------|
E|-11-11-11-11-11-11-11-11-11-11-11-11-11-11-11-11-|

G|-------------------------------------------------|
D|-------------------------------------------------|
A|-------------------------------------------------|
E|-12-12-12-12-12-12-12-12-12-12-12-12-12-12-12-12-|


(refrão)
E|-------------------------------------|
B|-12----12----12----11----14----14----| Delay!
G|----11----11----11----11----11----11-|
D|-------------------------------------|
A|-------------------------------------|
E|-------------------------------------|x3

E|-------------------------------|
B|-12h14-14-14-14-14-14-14-11-11-| Delay
G|-11-11-11-11-11-11-11-11-11-11-|
D|-------------------------------|
A|-------------------------------|
E|-------------------------------|

E|-----------------|
B|-----------------|
G|-8~--9~----------|
D|-9~--9~--9~--11~-|
A|-6~--7~--9~--11~-|
E|---------7~---9~-|
Página 1 / 1

Letras e título
Acordes e artista

resetar configurações
OK