Cifra Club

Good Day

Angels & Airwaves

Cifra: Principal (violão e guitarra)
Tom: B
Played on little kid piano, but on guitar it's:
e|--7---9--11/7----|
B|-7---7-----------|
G|-----------------|
D|-----------------|  for the intro, verse 1, and verse 2
A|-----------------|
E|-----------------|

Verse 1
pm all

e|------------------------------------------------------------|
B|------------------------------------------------------------|
G|-9-9-9-9-9-9-9-9-9--9--9--9--9--9--9--9--9--9--9--9--9--9---|
D|-9-9-9-9-9-9-9-9-11-11-11-11-11-11-11-11-13-11-11-11-11-11--|
A|------------------------------------------------------------|
E|------------------------------------------------------------|

Pre-Chorus:
Guitar 1
e|-----------------------------------------|
B|-----------------------------------------|
G|-4-4-4-4-4-----3-3-3-3-3-----------------|
D|-4-4-4-4-4-----4-4-4-4-4-----------------|
A|-2-2-2-2-2-----1-1-1-1-1-----------------|
E|-----------------------------------------|

Guitar 2
e|---------------------------------------|
B|-4-4-4-4-4-4--2-2-2-2-2--2/4-----------|
G|-4-4-4-4-4----3-3-3-3-3----------------|
D|---------------------------------------|
A|-2-2-2-2-2----1-1-1-1-1----------------|
E|---------------------------------------|

Chorus:
e|------------------------|
B|------------------------|
G|-4-3-4-3-4-3-4----------|
D|-4-4-4-4-4-4-4----------|
A|-2-1-2-1-2-1-2----------|
E|------------------------|


Verse 2:
pm all
e|------------------------------------------------------------|
B|------------------------------------------------------------|
G|-9-9-9-9-9-9-9-9-9--9--9--9--9--9--9--9--9--9--9--9--9--9---|
D|-9-9-9-9-9-9-9-9-11-11-11-11-11-11-11-11-13-11-11-11-11-11--|
A|------------------------------------------------------------|
E|------------------------------------------------------------|

Pre-Chorus:
Guitar 1
e|----------------------------------------|
B|-4-4-4-4-4-4---2-2-2-2-2-2/4------------|
G|-4-4-4-4-4-----3-3-3-3-3----------------|
D|----------------------------------------|
A|-2-2-2-2-2-----1-1-1-1-1----------------|
E|----------------------------------------|

Guitar 2
e|----------------------------------------|
B|----------------------------------------|
G|-4-4-4-4-4-----3-3-3-3-3----------------|
D|-4-4-4-4-4-----4-4-4-4-4----------------|
A|-2-2-2-2-2-----1-1-1-1-1----------------|
E|----------------------------------------|

Chorus:
e|---------------------------------|
B|---------------------------------|
G|-4-4-4-4-3-3-3-3-----------------|
D|-4-4-4-4-4-4-4-4-----------------|  Continue into the bridge with the "da"'s
A|-2-2-2-2-1-1-1-1-----------------|
E|---------------------------------|

Bridge:
e|-14-14-14-12-12-12-11-11-11-9-9-9-11-11-9-9-----7-7-7-----7-7-7----|
B|-------------------------------------------5-5-5-----5-5-5---------|
G|-------------------------------------------------------------------|
D|-------------------------------------------------------------------|
A|-------------------------------------------------------------------|
E|-------------------------------------------------------------------|

e|-------------------------------------------------------------------|
B|-------------------------------------------------------------------|
G|-11-11-11-9-9-9-8-8-8-6-6-6-8-8-6-6-----4-4-4-----4-4-4------------|
D|-----------------------------------2-2-2-----2-2-2-----------------|
A|-------------------------------------------------------------------|
E|-------------------------------------------------------------------|

e|-14-14-14-12-12-12-11-11-11-9-9-9-11-11-9-9-----7-7-7-----7-7-7----|
B|-------------------------------------------5-5-5-----5-5-5---------|
G|-------------------------------------------------------------------|
D|-------------------------------------------------------------------|
A|-------------------------------------------------------------------|
E|-------------------------------------------------------------------|

e|-------------------------------------------------------------------|
B|-------------------------------------------------------------------|
G|-11-11-11-9-9-9-8-8-8-6-6-6-8-8-6-6-----4-4-4-----4-4-4------------|
D|-----------------------------------2-2-2-----2-2-2-----------------|
A|--9--9--9-7-7-7-6-6-6-4-4-4-6-6-4-4--------------------------------|
E|-------------------------------------------------------------------|

Outro:
Guitar 1:
e|-14-14-14-12-12-12-11-11-11-9-9-9-11-11-9-9-----7-7-7-----7-7-7----|
B|-------------------------------------------5-5-5-----5-5-5---------|
G|-------------------------------------------------------------------|
D|-------------------------------------------------------------------|
A|-------------------------------------------------------------------|
E|-------------------------------------------------------------------|

Guitar 2:
e|-------------------------------------------------------------------|
B|-------------------------------------------------------------------|
G|-4444444444444433333333333333444444444444444443333333333333333-----|
D|-4444444444444444444444444444444444444444444444444444444444444-----|
A|-2222222222222211111111111111222222222222222221111111111111111-----|
E|-------------------------------------------------------------------|
exibições 6.786
Acordes para:
    Composição: Tom DeLonge Colaboração e revisão:
    • Guilherme Yukishigue

    0 comentários

    mostrar mais comentários

    Conseguiu tocar?

    0 tocaram 0 ainda não

    Grave um vídeo tocando Good Day e mande pra gente!

    00:00 / 00:00
    outros vídeos desta música
    repetir qualidade Automático
    Outros vídeos desta música
    00:00 / 00:00
    Automático
    OK