Cifra Club

I Miss You (live)

Angels & Airwaves

Cifra: Principal (violão e guitarra)
Tom: B
Outra música do Blink-182 que o Tom, vez ou outra, toca nos shows do AvA

Cappo na 2ª

Intro
e-------------------------|
b-------------------------|
g--9-9--9-9--9-9--9-9-----|
d--7-7--4-4--6-6--7-7-----|
a--0-0--0-0--0-0--0-0-----|
e-------------------------|

e-------------------------|
b-------------------------|
g------9------9----9------|
d----7------7----7----(x2)|
a--0------0---------------|
e-------------------------|

e-------------------------------------------------------|
b-------------------------------------------------------|
g------9------9----9----------9---------4--------4------|
d----4------4---4----------6------6--7-----6--7-----6--7|
a--0------0------------0--------------------------------|
e-------------------------------------------------------|

Verso
e-------------------------|
b-------------------------|
g------9------9----9------|
d----7------7----7----(x2)|
a--0------0---------------|
e-------------------------|

e-------------------------------|
b-------------------------------|
g------9------9----9----------9-|
d----4------4---4----------6----|
a--0------0------------0--------|
e-------------------------------|


Refrão
e-------------------------|
b-------------------------|
g--6-6--4-4--2-2--4-4-----|
d--7-7--7-7--4-4--6-6-----|
a--0-0--0-0--0-0--0-0-----|
e-------------------------|
exibições 1.598
Acordes para:
    Composição: Tom Delonge e Mark Hoppus Colaboração e revisão:
    • Jean Sapia

    0 comentários

    mostrar mais comentários

    Conseguiu tocar?

    0 tocaram 0 ainda não

    Grave um vídeo tocando I Miss You (live) e mande pra gente!

    00:00 / 00:00
    outros vídeos desta música
    repetir qualidade Automático
    Outros vídeos desta música
    00:00 / 00:00
    Automático
    OK