Cifra Club

Love Like Rockets

Angels & Airwaves

Tab de baixo: Principal
Intro
|-------------------------------------------|
|-------------------------------------------|
|--5~----7~----9~----10~--------------------|
|-------------------------------------------|

1:16
Verso
|-------------------------------------------|
|-------------------------------------------|
|--55-55-5--77-77-7--99-99-9--1010-1010-10--|
|-------------------------------------------|

2:16
Refrão
|-------------------------------------------|
|--4---4-5---5-7--7-5-----------------------| x2
|---5-----5-----5----5----------------------|
|-------------------------------------------|

2:39
Pre-Verso
|--------11-12---12-14--14h16-12------------|
|--/16-12-----12------12--------12\---------|
|-------------------------------------------|
|-------------------------------------------|

2:55
Verso
|-------------------------------------------|
|-------------------------------------------|
|--55-55-5--77-77-7--99-99-9--1010-1010-10--|
|-------------------------------------------|

3:18
Refrão
|-------------------------------------------|
|--4---4-5---5-7--7-5-----------------------| x2
|---5-----5-----5----5----------------------|
|-------------------------------------------|

3:41
Pós Refrão
|-------------------------------------------|
|--/12~-------------------------------------|
|-------------------------------------------|
|-------------------------------------------|

Outro
3:49
|-------------------------------------------|
|-------------------------------------------| Até o fim
|--55555555--99--77777777--99999999---------|
|---------------------------------33333333--|
exibições 56
Colaboração e revisão:
  • Jean Sapia

0 comentários

mostrar mais comentários

Conseguiu tocar?

0 tocaram 0 ainda não

Grave um vídeo tocando Love Like Rockets e mande pra gente!

00:00 / 00:00
outros vídeos desta música
repetir qualidade Automático
Outros vídeos desta música
00:00 / 00:00
Automático
OK