Cifra Club

Rebel Girl

Angels & Airwaves

Cifra: Principal (violão e guitarra)
Tom: C
[Intro]

   C5             G5             F5             F5
E|--------------| --------------|--------------|------------|
B|--------------| --------------|-----5--------|-----5------|
G|-7-5--7~~~~~5-| -7-5--7~~~~~5-|-7-5---7-5----|-7-5---7-5--| 4x
D|--------------| --------------|--------------|------------|
A|--------------| --------------|--------------|------------|
E|--------------| --------------|--------------|------------|

[0'15]

E|--7-7-7-8-8-8-10-10--| --7-7-7-8-8-8-10-10--|
B|--8-8-8-8-8-8-8--8---| --8-8-8-8-8-8-8--8---|
G|---------------------| ---------------------|
D|---------------------| ---------------------|
A|---------------------| ---------------------|
E|---------------------| ---------------------|

[Primeira parte]

C5                      G5
If you wanna dance, my love
                 F5
My little rebel girl

E|--------------| ------------|
B|-----5--------| -----5------|
G|-7-5---7-5----| -7-5---7-5--|
D|--------------| ------------|
A|--------------| ------------|
E|--------------| ------------|

C5                    G5
Come a little closer now
                    F5
And let me in your world

E|--------------| ------------|
B|-----5--------| -----5------|
G|-7-5---7-5----| -7-5---7-5--|
D|--------------| ------------|
A|--------------| ------------|
E|--------------| ------------|

E|-------------------|
B|-------------------|
G|----7--------------|
D|--5---5------------| (8x)
A|--------8-8-7-7----|
E|-------------------|

C5                         G5
Sometimes it's a lonely cause
                  F5
So I just make believe
C5                         G5
If you're gonna take a chance
                       F5
Then take a chance on me

[Refrão]

E|-------------------| -------------------|
B|--8-----8-----8----| --8-----8-----8----|
G|----5-5---5-5---5--| ----5-5---5-5---5--|
D|-------------------| -------------------| (4x)
A|-------------------| -------------------|
E|-------------------| -------------------|

        C5           F5
D-d-do you wanna go back to where we started?
 C5                 G5
Back before we were broken hearted?
E5                 F5
Come my way, come come, I gotta tell ya
     C5                   G5
The shoe fits, my little Cinderella

   C5             G5             F5             F5
E|--------------| --------------|--------------|------------|
B|--------------| --------------|-----5--------|-----5------|
G|-7-5--7~~~~~5-| -7-5--7~~~~~5-|-7-5---7-5----|-7-5---7-5--| 4x
D|--------------| --------------|--------------|------------|
A|--------------| --------------|--------------|------------|
E|--------------| --------------|--------------|------------|

E|--7-7-7-8-8-8-10-10--| --7-7-7-8-8-8-10-10--|
B|--8-8-8-8-8-8-8--8---| --8-8-8-8-8-8-8--8---|
G|---------------------| ---------------------|
D|---------------------| ---------------------|
A|---------------------| ---------------------|
E|---------------------| ---------------------|

[Segunda Parte]

C5                      G5                 F5
Every little thing you do is like a tidal wave

E|--------------| ------------|
B|-----5--------| -----5------|
G|-7-5---7-5----| -7-5---7-5--|
D|--------------| ------------|
A|--------------| ------------|
E|--------------| ------------|

   C5                       G5
A fire deep within those eyes
                 F5
The kill is so cliché

E|--------------| ------------|
B|-----5--------| -----5------|
G|-7-5---7-5----| -7-5---7-5--|
D|--------------| ------------|
A|--------------| ------------|
E|--------------| ------------|

E|-------------------|
B|-------------------|
G|----7--------------|
D|--5---5------------| (8x)
A|--------8-8-7-7----|
E|-------------------|

C5                       G5
Dance, my little rebel girl
                     F5
And show me how you move
C5                       G5
Let me take you in my arms
                   F5
And into the back room

[Refrão]

E|-------------------| -------------------|
B|--8-----8-----8----| --8-----8-----8----|
G|----5-5---5-5---5--| ----5-5---5-5---5--|
D|-------------------| -------------------| (8x)
A|-------------------| -------------------|
E|-------------------| -------------------|

        C5           F5
D-d-do you wanna go back to where we started?
 C5                 G5
Back before we were broken hearted?
E5                 F5
Come my way, come come, I gotta tell ya
     C5                   G5
The shoe fits, my little Cinderella

        C5           F5
D-d-do you wanna go back to where we started?
 C5                 G5
Back before we were broken hearted?
E5                 F5
Come my way, come come, I gotta tell ya
     C5                   G5
The shoe fits, my little Cinderella

[Solo]

E|-------------------| -------------------|
B|--8-----8-----8----| ----8-----8-6-5-6--|
G|----5-5---5-5---5--| --5---5-5----------|
D|-------------------| -------------------| (4x)
A|-------------------| -------------------|
E|-------------------| -------------------|

[Base Solo]

   E5 F5    G5 A5     C5                  D5  
E|--------| --------|-------------------|-------------------|
B|--------| --------|-------------------|-------------------|
G|--------| --------|--5-5-5-5-5-5-5-5--|--7-7-7-7-7-7-7-7--|
D|--2--3--| --5--7--|--5-5-5-5-5-5-5-5--|--7-7-7-7-7-7-7-7--| (2x)
A|--2--3--| --5--7--|--3-3-3-3-3-3-3-3--|--5-5-5-5-5-5-5-5--|
E|--0--1--| --3--5--|-------------------|-------------------|

[Ponte]

   F5      E5    A5      G5    F5     E5     A5 B5     E5   D5
E|------| ------|------|------|------|------|--------|-----------|
B|------| ------|------|------|------|------|--------|-----------|
G|------| ------|--2---|------|------|------|--2--4--|--9-9-9-7--|
D|--3---| --2---|--2---|--5---|--3---|--2---|--2--4--|--9-9-9-7--|
A|--3---| --2---|--0---|--5---|--3---|--2---|--0--2--|--7-7-7-5--|
E|--1---| --0---|------|--3---|--1---|--0---|--------|-----------|

    F5                 E5
I'm lost in nerves, I can't recover
   A5                G5
I die inside, unlike any other
F5           E5
Come my way, come my little girl
      A5  B5 E5 D5
Come back

[Refrão]

E|-------------------| -------------------|
B|--8-----8-----8----| --8-----8-----8----|
G|----5-5---5-5---5--| ----5-5---5-5---5--|
D|-------------------| -------------------| (8x)
A|-------------------| -------------------|
E|-------------------| -------------------|

        C5           F5
D-d-do you wanna go back to where we started?
 C5                 G5
Back before we were broken hearted?
E5                 F5
Come my way, come come, I gotta tell ya
     C5                   G5
The shoe fits, my little Cinderella

        C5           F5
D-d-do you wanna go back to where we started?
 C5                 G5
Back before we were broken hearted?
E5                 F5
Come my way, come come, I gotta tell ya
     C5                   G5
The shoe fits, my little Cinderella

[Final]

   E5 F5  G5
E|-----------|
B|-----------|
G|-----------|
D|--2-3---5--|
A|--2-3---5--|
E|--0-1---3--|
exibições 44
Acordes para:
    Composição: Tom DeLonge Colaboração e revisão:
    • Renan Luiz

    0 comentários

    mostrar mais comentários

    Conseguiu tocar?

    1 tocaram 0 ainda não

    Grave um vídeo tocando Rebel Girl e mande pra gente!

    00:00 / 00:00
    outros vídeos desta música
    repetir qualidade Automático
    Outros vídeos desta música
    00:00 / 00:00
    Automático
    OK