Cifra Club

Rite Of Spring

Angels & Airwaves

Cifra: Principal (violão e guitarra)
Tom: E
Intro (Flanger Effects, lots)
E|----------------------------|
B|----------------------------|
G|--------4-----6p4-----4-----|
D|----------------------------|
A|--7--7-----7-------7--------|
E|----------------------------|

Verse (Clean)
E|-------------------------------------------------------------------|
B|-------------------------------------------------------------------|
G|-------------------------------------------------------------------|
D|-----9-----9---9-----9-----9---9-----9-----9---9-----9-----9---9---|
A|-7-7---7-7---7---7-7---7-7---7---7-7---7-7---7---7-7---7-7---7-----|
E|-------------------------------------------------------------------|

E|-------------------------------------------------------------------|
B|-------------------------------------------------------------------|
G|-------------------------------------------------------------------|
D|-----9-----9---9-----9-----9---9-----9-----9---9-----9-----9---9---|
A|-0-0---0-0---0---0-0---0-0---0---0-0---0-0---0---0-0---0-0---0-----|
E|-------------------------------------------------------------------|

Chorus Chords
E|--------|
B|--------|
G|--------|
D|--------|
A|-11-9-7-|
E|-9--7-5-|

Chorus Guitar (approximate)
E|----------------------------------------|
B|----------------------------------------|
G|-9-9-9-9-9-9-9-8-9-9-9-9-11-11-11-9-9---|
D|----------------------------------------|
A|----------------------------------------|
E|----------------------------------------|

Bridge Thingy

E|--------------------------------------------------------------------------------|
B|--------------------------------------------------------------------------------|
G|--------------------------------------------------------------------------------|
D|-6-----------------6-----------------7---------------6---7---------------6------|
A|---7-9-7-9-9-9-9-7---7-9-7-9-9-9-9-7---7-9-7-9-9-9-9---7---7-9-7-9-9-9-9--7-----|
E|--------------------------------------------------------------------------------|
exibições 4.072
Acordes para:
    Colaboração e revisão:
    • Jean Sapia

    0 comentários

    mostrar mais comentários

    Conseguiu tocar?

    0 tocaram 0 ainda não

    Grave um vídeo tocando Rite Of Spring e mande pra gente!

    00:00 / 00:00
    outros vídeos desta música
    repetir qualidade Automático
    Outros vídeos desta música
    00:00 / 00:00
    Automático
    OK