Cifra Club

Secret Crowds

Angels & Airwaves

Cifra: Principal (violão e guitarra)
Tom: D
Intro (As many times as needed i think about 8
e|-----------------------------------------------------|
B|-----------------------------------------------------|
G|-11/-7-7-7/66----------------------------------------|
D|-x-/-x-x-x/xx----------------------------------------|
A|-9-/-5-5-5/44----------------------------------------|
E|-----------------------------------------------------|

Chorus
e|---------------------------------------------------------------------------|
B|---------------------------------------------------------------------------|
G|-7-7-7-7-7-7-7-7-7-7-------------------------------------------------------|
D|-7-7-7-7-7-7-7-7-7-7----7-7-7-7-7---5-5-5-5-5------------------------------|
A|-5-5-5-5-5-5-5-5-5-5----7-7-7-7-7---5-5-5-5-5------------------------------|
E|------------------------5-5-5-5-5---3-3-3-3-3------------------------------|

e|---------------------------------------------------------------------------|
B|---------------------------------------------------------------------------|
G|-7-7-7-7-7-7-7-7-7-7-------------------------------------------------------|
D|-7-7-7-7-7-7-7-7-7-7----7-7-7-7-7---5-5-5-5-5------------------------------|
A|-5-5-5-5-5-5-5-5-5-5----7-7-7-7-7---5-5-5-5-5------------------------------|
E|------------------------5-5-5-5-5---3-3-3-3-3------------------------------|

And Then the intro again
e|------------------------------------------------------------------------------|
B|------------------------------------------------------------------------------|
G|-11/-7-7-7/6-6----------------------------------------------------------------|
D|-x-/-x-x-x/x-x----------------------------------------------------------------|
A|-9-/-5-5-5/4-4----------------------------------------------------------------|
E|------------------------------------------------------------------------------|

And then chorus again..
e|---------------------------------------------------------------------------|
B|---------------------------------------------------------------------------|
G|-7-7-7-7-7-7-7-7-7-7-------------------------------------------------------|
D|-7-7-7-7-7-7-7-7-7-7----7-7-7-7-7---5-5-5-5-5------------------------------|
A|-5-5-5-5-5-5-5-5-5-5----7-7-7-7-7---5-5-5-5-5------------------------------|
E|------------------------5-5-5-5-5---3-3-3-3-3------------------------------|

e|---------------------------------------------------------------------------|
B|---------------------------------------------------------------------------|
G|-7-7-7-7-7-7-7-7-7-7-------------------------------------------------------|
D|-7-7-7-7-7-7-7-7-7-7----7-7-7-7-7---5-5-5-5-5------------------------------|
A|-5-5-5-5-5-5-5-5-5-5----7-7-7-7-7---5-5-5-5-5------------------------------|
E|------------------------5-5-5-5-5---3-3-3-3-3------------------------------|
exibições 7.898
Acordes para:

    0 comentários

    mostrar mais comentários

    Conseguiu tocar?

    1 tocaram 0 ainda não

    Grave um vídeo tocando Secret Crowds e mande pra gente!

    00:00 / 00:00
    outros vídeos desta música
    repetir qualidade Automático
    Outros vídeos desta música
    00:00 / 00:00
    Automático
    OK