Cifra Club

Shove

Angels & Airwaves

Cifra: Principal (violão e guitarra)
Tom: D
(guitar 1)

(intro) (0:00-0:18) have echo on
E|-------------|
B|-12~--12~----|
G|-11~--11~----|
D|--9~---9~----|
A|-------------|
E|-------------|

(guitar 1)
(intro Pt2) (0:18-0:37)
E|----------------------------------|
B|--------12------------------12----|
G|------------11-----------11----11-| (x4)
D|-9~~~~----------9~~~~~------------|
A|----------------------------------|
E|----------------------------------|

(guitar 1)
(verse) (0:37-1:11)
E|------------------------|
B|-12--12--11--14--14--11-|
G|-11--11--11--11--11--11-|
D|------------------------|
A|------------------------|
E|------------------------|

(guitar 2)
(verse) (0:56-1:11)
E|-------------------------------------|
B|-------------------------------------|
G|-------3~~---4~~---6~~---------3~~---|
D|-6~~---3~~---4~~---6~~---6~~---3~~---|
A|-6~~---1~~---2~~---4~~---6~~---1~~---|
E|-4~~---------------------4~~---------|

(guitar 2)
(chorus) (1:11-1:31)
E|-------------------------------------------------------------------------|
B|-------------------------------------------------------------------------|
G|-4-4-4-4-4-4-------------4-4-4-4-4-4-------------------------------------|
D|-4-4-4-4-4-4-2-2-2-2-2-2-4-4-4-4-4-4-4-4-4-4-4-4-6-6-6-6-6-6-2-2-2-2-2-2-|
A|-2-2-2-2-2-2-2-2-2-2-2-2-2-2-2-2-2-2-4-4-4-4-4-4-6-6-6-6-6-6-2-2-2-2-2-2-|
E|-------------0-0-0-0-0-0-------------2-2-2-2-2-2-4-4-4-4-4-4-0-0-0-0-0-0-|

E|-------------------------|
B|-------------------------|
G|-4-4-4-4-4-4-------------|
D|-4-4-4-4-4-4-4-4-4-4-4-4-|
A|-2-2-2-2-2-2-4-4-4-4-4-4-|
E|-------------2-2-2-2-2-2-|

(guitar 1)
(chorus) (1:11-1:31)
E|----------------------------------------------------------------------|
B|----------------------------------------------------------------------|
G|-8~------8~--9~-11~--8~------8~--9~--11~--8~--(8)-----8~--9~--11~--8~-|
D|-9~------9~--9~--9~--9~------9~--9~---9~--9~--(9)-----9~--9~---9~--9~-|
A|----------------------------------------------------------------------|
E|----------------------------------------------------------------------|

E|--------------------------|
B|--------------------------|
G|-(8)-----8~--9~--11~--8~--|
D|-(9)-----9~--9~---9~--9~--|
A|--------------------------|
E|--------------------------|

(guitar 1)
(intro Pt2) (1:31-1:50)
E|----------------------------------|
B|--------12------------------12----|
G|------------11-----------11----11-| (x4)
D|-9~~~~----------9~~~~~------------|
A|----------------------------------|
E|----------------------------------|

(guitar 1)
(verse) (1:50-2:23)
E|------------------------|
B|-12--12--11--14--14--11-|
G|-11--11--11--11--11--11-|
D|------------------------|
A|------------------------|
E|------------------------|

(guitar 2)
(verse) (2:09-2:23)
E|-------------------------------------|
B|-------------------------------------|
G|-------3~~---4~~---6~~---------3~~---|
D|-6~~---3~~---4~~---6~~---6~~---3~~---|
A|-6~~---1~~---2~~---4~~---6~~---1~~---|
E|-4~~---------------------4~~---------|

(guitar 2)
(chorus) (2:23-3:01)
E|-------------------------------------------------------------------------|
B|-------------------------------------------------------------------------|
G|-4-4-4-4-4-4-------------4-4-4-4-4-4-------------------------------------|
D|-4-4-4-4-4-4-2-2-2-2-2-2-4-4-4-4-4-4-4-4-4-4-4-4-6-6-6-6-6-6-2-2-2-2-2-2-|
A|-2-2-2-2-2-2-2-2-2-2-2-2-2-2-2-2-2-2-4-4-4-4-4-4-6-6-6-6-6-6-2-2-2-2-2-2-|
E|-------------0-0-0-0-0-0-------------2-2-2-2-2-2-4-4-4-4-4-4-0-0-0-0-0-0-|

E|-------------------------|
B|-------------------------|
G|-4-4-4-4-4-4-------------|
D|-4-4-4-4-4-4-4-4-4-4-4-4-|
A|-2-2-2-2-2-2-4-4-4-4-4-4-|
E|-------------2-2-2-2-2-2-|

(guitar 1)
(chorus) (2:23-3:01)
E|----------------------------------------------------------------------|
B|----------------------------------------------------------------------|
G|-8~------8~--9~-11~--8~------8~--9~--11~--8~--(8)-----8~--9~--11~--8~-|
D|-9~------9~--9~--9~--9~------9~--9~---9~--9~--(9)-----9~--9~---9~--9~-|
A|----------------------------------------------------------------------|
E|----------------------------------------------------------------------|

E|--------------------------|
B|--------------------------|
G|-(8)-----8~--9~--11~--8~--|
D|-(9)-----9~--9~---9~--9~--|
A|--------------------------|
E|--------------------------|

(guitar 2)
(chorus) (2:23-3:01)
E|-------------------------------------------------------------------------|
B|-------------------------------------------------------------------------|
G|-4-4-4-4-4-4-------------4-4-4-4-4-4-------------------------------------|
D|-4-4-4-4-4-4-2-2-2-2-2-2-4-4-4-4-4-4-4-4-4-4-4-4-6-6-6-6-6-6-2-2-2-2-2-2-|
A|-2-2-2-2-2-2-2-2-2-2-2-2-2-2-2-2-2-2-4-4-4-4-4-4-6-6-6-6-6-6-2-2-2-2-2-2-|
E|-------------0-0-0-0-0-0-------------2-2-2-2-2-2-4-4-4-4-4-4-0-0-0-0-0-0-|

E|-------------------------|
B|-------------------------|
G|-4-4-4-4-4-4-------------|
D|-4-4-4-4-4-4-4-4-4-4-4-4-|
A|-2-2-2-2-2-2-4-4-4-4-4-4-|
E|-------------2-2-2-2-2-2-|

(guitar 1)
(chorus) (2:23-3:01)
E|----------------------------------------------------------------------|
B|----------------------------------------------------------------------|
G|-8~------8~--9~-11~--8~------8~--9~--11~--8~--(8)-----8~--9~--11~--8~-|
D|-9~------9~--9~--9~--9~------9~--9~---9~--9~--(9)-----9~--9~---9~--9~-|
A|----------------------------------------------------------------------|
E|----------------------------------------------------------------------|

E|--------------------------|
B|--------------------------|
G|-(8)-----8~--9~--11~--8~--|
D|-(9)-----9~--9~---9~--9~--|
A|--------------------------|
E|--------------------------|

(no guitars from) (3:01-3:20)

(guitar 2)
(chorus) (3:21-3:59)
E|-------------------------------------------------------------------------|
B|-------------------------------------------------------------------------|
G|-4-4-4-4-4-4-------------4-4-4-4-4-4-------------------------------------|
D|-4-4-4-4-4-4-2-2-2-2-2-2-4-4-4-4-4-4-4-4-4-4-4-4-6-6-6-6-6-6-2-2-2-2-2-2-|
A|-2-2-2-2-2-2-2-2-2-2-2-2-2-2-2-2-2-2-4-4-4-4-4-4-6-6-6-6-6-6-2-2-2-2-2-2-|
E|-------------0-0-0-0-0-0-------------2-2-2-2-2-2-4-4-4-4-4-4-0-0-0-0-0-0-|

E|-------------------------|
B|-------------------------|
G|-4-4-4-4-4-4-------------|
D|-4-4-4-4-4-4-4-4-4-4-4-4-|
A|-2-2-2-2-2-2-4-4-4-4-4-4-|
E|-------------2-2-2-2-2-2-|

(guitar 1)
(chorus) (3:21-3:59)
E|----------------------------------------------------------------------|
B|----------------------------------------------------------------------|
G|-8~------8~--9~-11~--8~------8~--9~--11~--8~--(8)-----8~--9~--11~--8~-|
D|-9~------9~--9~--9~--9~------9~--9~---9~--9~--(9)-----9~--9~---9~--9~-|
A|----------------------------------------------------------------------|
E|----------------------------------------------------------------------|

E|--------------------------|
B|--------------------------|
G|-(8)-----8~--9~--11~--8~--|
D|-(9)-----9~--9~---9~--9~--|
A|--------------------------|
E|--------------------------|

(guitar 1)
(outro) (4:01-4:37)
E|-----------------------------------------|
B|-----------------------------------------|
G|-11---11-11-9-9-9-9-8-8-8-8-9-9-9-8-8-8--|
D|-----------------------------------------| x16
A|-----------------------------------------|
E|-----------------------------------------|
   X    X   X X X X X X X X X X X X X X X

(guitar 2)
(outro) (4:01-4:37)
E|----------------------11~---------11~-----|
B|-----12~-------12~--------14~---------12~-|
G|-11~--------11~---------------------------|
D|------------------------------------------| x4
A|------------------------------------------|
E|------------------------------------------|
exibições 677
Acordes para:
    Composição: Tom DeLonge Colaboração e revisão:
    • Lizandra

    0 comentários

    mostrar mais comentários

    Conseguiu tocar?

    0 tocaram 0 ainda não

    Grave um vídeo tocando Shove e mande pra gente!

    00:00 / 00:00
    outros vídeos desta música
    repetir qualidade Automático
    Outros vídeos desta música
    00:00 / 00:00
    Automático
    OK