Cifra Club

Aprenda

Star Of Bethlehem

Angels & Airwaves

Cifra: Principal (violão e guitarra)
Tom: D
E|-----------------------------------|
B|-----------------------------------|
G|-----------------------------------|
D|--11---7------9---7------9--11--7--|
A|-----------------------------------|
E|-----------------------------------|

At Approx. 3:09 min start this: you know how it goes

E|-------------------------------------|
B|-------------------------------------|
G|--9-9--6-6-7-6-----------------------|
D|--7-7--7-7-7-7-7---------------------|
A|--0-0--0-0-0-0-0---------------------|
E|-------------------------------------|
                                             
At 4:00 min start with this:                    
                                                
E|-5555555555555555--5555555555555555--5555555555555555--5555555555555555-|
B|-2222222222222222--3333333333333333--5555555555555555--3333333333333333-|
G|------------------------------------------------------------------------|
D|------------------------------------------------------------------------|
A|------------------------------------------------------------------------|
E|------------------------------------------------------------------------|

This weird palm muted thing with digital delay and dead note type things.

At approx. 4:15 min start this and repeat this for the whole verse

P.M.....................................................................
E|-----------------|----------------|----------------|-----------------|
B|-----------------|----------------|----------------|-----------------|
G|-----------------|-4-4-4-4-4-4-4-4|-6-6-6-6-6-6-6-6|-7-7-7-7-7-7-7-7-|
D|--7-7-7-7-7-7-7-7|-7-7-7-7-7-7-7-7|-7-7-7-7-7-7-7-7|-7-7-7-7-7-7-7-7-|
A|-----------------|----------------|----------------|-----------------|
E|-----------------|----------------|----------------|-----------------|

Repeat 2 times

E|--0-5---0-7---0-5----------------0-5---9-5----------------------|
B|---------------------5---3---2----------------5---3--2----------| 
G|-------------------2---2---2----------------2---2---2-----------|
D|----------------------------------------------------------------|
A|----------------------------------------------------------------|
E|----------------------------------------------------------------|

End in chorus

at very end there's a weird thing thats like this

e|--5-0-5-7-4-0-5-0-5-7-4-0-4-5|
Composição de Tom DeLonge
Colaboração e revisão:
  • Jean Sapia
1.134 exibições
    • ½ Tom
    • A
    • Bb
    • B
    • C
    • Db
    • D
    • Eb
    • E
    • F
    • F#
    • G
    • Ab
  • Adicionar à lista

    0 comentários

    Mostrar mais comentários

    Conseguiu tocar?

    0 Tocaram 0 Ainda não

    Grave um vídeo tocando Star Of Bethlehem e mande pra gente!

    00:00 / 00:00
    outros vídeos desta música
    repetir qualidade Automático
    Outros vídeos desta música
    00:00 / 00:00
    Automático

    Cifra Club Pro

    Aproveite o Cifra Club com benefícios exclusivos e sem anúncios
    7 dias grátis
    Cifra Club Pro
    Aproveite o Cifra Club com benefícios exclusivos e sem anúncios
    7 dias grátis
    OK