Cifra Club

The adventure

Angels & Airwaves

Cifra: Principal (violão e guitarra)
Tom: Db (forma dos acordes no tom de B) Capotraste na 2ª casa
Riff 1(intro)-(refrão): Esse Riff eh tocado pelo David na introdução e durante boa parte da musica escutem pra saber onde ele é usado.
e|-----------------------------------------------------------------------------------|
b|-----------------------|-------------------|-------------------|-------------------|
g|---------11-------11---|-----11-------11---|-----11-------11---|-----11-------11---|
d|-----9--------9--------|-8--------8--------|-6--------6--------|-8--------8--------|
a|-------2----2---2----2-|---2----2---2----2-|---2----2---2----2-|---2----2---2----2-|
e|-----------------------|-------------------|-------------------|-------------------|

Riff 2: Esse Riff é feito pelo Thomas Delonge(como ele mesmo disse agora ele é o Thomas =/ )
e|--------------|------------------|
b|--------------|------------------|
d|----------9-8-|-----11-------9-8-| Riff tocada varias vezes no junto com o riff do David
g|--------------|-9-9----9-8-8-----| Riff todo abafado.
a|--------------|------------------|
e|--------------|------------------|

Solo: Esse solinho é tocado pelo Thomas (tb repete no meio da musica).
e|---------------------|--------------------------------------------------------------|
b|---------------------|--------------------------------------------------------------|
g|--11-11-11-9-9-9-8-8-|-9-9-9-8-8-8------9-9-9-8-8-8---------------------------------| 2X(repete 
d|---------------------|-------------9-9--------------9-9-----------------------------| varias vezes
a|---------------------|----------------------------------9-9-9-7-7-7-6-6-6-------6---| sempre de 2
e|---------------------|--------------------------------------------------------------| em dois)
  Essa parte é tocada sempre tocada 2 vezes apos a de cima(feito pelo Thomas tb)
e|--------------------|-------------------|
b|------------------9-|-------------------| <--- essa corda sempre solta
g|-11-----11-----11---|-9-----9-----8-----| <--- essa corda sempre solta
d|----9-9----9-9------|---9-9---9-9---9---| <--- essa corda sempre abafada
a|--------------------|-------------------|
e|----------------------------------------|

agora o resto 6 pegao ja passei quase tudo....
a se usar um Capo(presilha, pestana) na segunda casa ajuda....

(G#m - E - B - F# )
I wanna have the same last dream again
The one where I wake up and I'm alive
Just as the four walls close me within
My eyes are opened up with pure sunlight

I'm the first to know
My dearest friends
Even if your hope has burned with time
Anything that's dead shall be regrown
And your viscious pain, your warning sign
You will be fine

(B - F# - E - F#)

Hey yo, here I am
And here we go
Life's waiting to begin

Solo 2X

(G#m - E - B - F# )

Any type of love it will be shown
Like every single tree reach for the sky
If your gonna fall I'll let you know
That I will pick you up like you for I

I thought this thing life can't replace
Where everyone was working for this goal
Where all the children left without a trace
Only to come back as pure as gold
To recite this all

(B - F# - E - F#)

Hey yo, here I am
And here we go
Life's waiting to begin tonight [3x]

(B - E - G#m - F#)

I cannot live
I can't breath
Unless you do this with me [6x]

(B - F# - E - F#)

Hey yo, here I am (You do this with me)
And here we go (Do this with me)
Life's waiting to begin [2x]
Life's waiting to begin
exibições 24.843
Acordes para:
    Composição: Tom DeLonge Colaboração e revisão:
    • Carlos Neto
    • diego sousa
    • Fabio Robine

    0 comentários

    mostrar mais comentários

    Conseguiu tocar?

    0 tocaram 0 ainda não

    Grave um vídeo tocando The adventure e mande pra gente!

    00:00 / 00:00
    outros vídeos desta música
    repetir qualidade Automático
    Outros vídeos desta música
    00:00 / 00:00
    Automático
    OK