Cifra Club

True Love

Angels & Airwaves

Cifra: Principal (violão e guitarra)
Tom: D
Intro
E|---------------------------------------------------------------|
B|---------------------------------------------------------------|
G|---------------------------------------------------------------|
D|--11-(11)--7-(7)-----9-(9)---7-(7)-----9-(9)--11-(11)--7-(7)---|
A|---------------------------------------------------------------|
E|---------------------------------------------------------------|

Pre-Chorus
Palm Mute-Delay
E|------------------------|
B|------------------------|
G|-9----9-----6-7-6-------|
D|--7----7----------7-7---|
A|------------------------|
E|------------------------|

Chorus
------------------------|
--10---10---10---10-----|
---9----7-----9----7----|
---7----7-----7----7----|
------------------------|
------------------------|

Verse (Palm Mute-Delay)
E|--------------------------|
B|--------------------------|
G|--------------------------|
D|--7-7--7-7--7-7--7-7--7-7-|
A|--------------------------|
E|--------------------------|

Pre-Chorus
E|--------------------------------------|
B|--------------------------------------|
G|--9-9--6-7-6-7-9----9-9--6-7-6--------|
D|--7-7--7-7-7-7-7----7-7--7-7-7-7------|
A|--0-0--0-0-0-0-0----0-0--0-0-0-0------|
E|--------------------------------------|

Chorus
------------------------|
--10---10---10---10-----|
---9----7-----9----7----|
---7----7-----7----7----|
------------------------|
------------------------|

Then play this
Verse
Pre-Chorus
Chorus

Interlude
E|-----------------------------------------9------------------|
B|-----10---11---10--------------------11---10----------------|
G|---9----9----9-------9---7---6-----9-------------9---7---6--|
D|-------------------7---7---7-------------------7---7---7----|
A|------------------------------------------------------------|
E|------------------------------------------------------------|

E|-----------------------------------------9------------------|
B|-----11--9--10-----------------------11---10----------------|
G|---9-----------------9---7---6-----9-------------9---7---6--|
D|-------------------7---7---7-------------------7---7---7----|
A|------------------------------------------------------------|
E|------------------------------------------------------------|

Chorus
fade until the end..play it very quickly

e|--4-5-4--7--4-5-4--7--4-5-4--7-|
B|-------------------------------|
G|-------------------------------|
D|-------------------------------|
A|-------------------------------|
E|-------------------------------|

These are the lyrics to True Love by Angels and Airwaves, it was split into two parts 
of Bethlehem and True Love), both are on I Empire.

Lyrics

Yo eh, oh eh, oh eh, oh
Yo eh, oh eh, oh eh, oh
Yo eh, oh eh, oh eh, oh
Yo eh, oh eh, oh eh, oh
Yo eh, oh eh, oh eh, oh
Yo eh, oh eh, oh eh, oh
Yo eh, oh eh, oh eh, oh
Yo eh, oh eh, oh eh, oh

The snow, has come down, on top of everything
The town, is alive and well without you. (she's here)
The lights, they peer out, of the leafless trees
And you won't, be alone, I am beside you. (beside you)

Yo eh, oh eh, oh eh, oh
Yo eh, oh eh, oh eh, oh
Yo eh, oh eh, oh eh, oh
Yo eh, oh eh, oh eh, oh.

(True love) The stars sky, illuminate below
The light is the sign, that love will guide you home.
The stars in the sky, illuminate below
If the world were to die, the light will guide you.

Tears, spilling out, across a dead end street
Your house, is a lonely box that holds you. (she's here)
A star, bright and loud, is in dire need
Of the fear, it is an empty fear inside you.

Yo eh, oh eh, oh eh, oh
Yo eh, oh eh, oh eh, oh
Yo eh, oh eh, oh eh, oh
Yo eh, oh eh, oh eh, oh.

(True love) The stars sky, illuminate below
The light is the sign, that love will guide you home.
The stars in the sky, illuminate below
If the world were to die, the light will guide you.

The stars sky, illuminate below
The light is the sign, that love will guide you home.
The stars in the sky, illuminate below
If the world were to die, the light will guide you.

(True love) The stars sky, illuminate below
The light is the sign, that love will guide you home.
The stars in the sky, illuminate below
If the world were to die, the light will guide you.

The stars sky, illuminate below
The light is the sign, that love will guide you home.
The stars in the sky, illuminate below
If the world were to die, the light will guide you.

(True love) The stars sky, illuminate below
The light is the sign, that love will guide you home.
(True love) The stars in the sky, illuminate below
If the world were to die, the light will guide you.

(True love) The stars sky, illuminate below
The light is the sign, that love will guide you home.
(True love) The stars in the sky, illuminate below
If the world were to die, the light will guide you.
exibições 2.634
Acordes para:
    Composição: Tom DeLonge Colaboração e revisão:
    • Jean Sapia

    0 comentários

    mostrar mais comentários

    Conseguiu tocar?

    0 tocaram 0 ainda não

    Grave um vídeo tocando True Love e mande pra gente!

    00:00 / 00:00
    outros vídeos desta música
    repetir qualidade Automático
    Outros vídeos desta música
    00:00 / 00:00
    Automático
    OK