Cifra Club

Valkryie Missile

Angels & Airwaves

Tab de baixo: Principal
Bassist: Ryan sin
Tuning: Standard (EADG)
~ = let ring


Intro
G|--9--9—-9-—7-9—-11----------------------------------------------|
D|----------------------12---12-12--11-11--12—-11—--11---9-7------|
A|----------------------------------------------------------------|
E|----------------------------------------------------------------|
play this about 10 times I think. The first three times uses distortion

the number in the brackets is the number of times you play the note
Chorus
G|-------------------------------|
D|-------------------------------|
A|---------5-(32)----------------|
E|--2-(32)--------5-(32)—0-(32)--|

Verse
“Everyone, everyone will listen...”
G|-----------------------------------------|
D|-----------------------------------------|
A|-----------------------------------------|
E|--5~------------------5~-----------------|

Pre Chorus
“Leave your pain on the bedroom floor again....”
G|---------------------------------------|
D|---------------------------------------|
A|--------------------------------5-(8)--|
E|--5-(24)—-4-(8)—-5-(16)—-7-(8)---------| play this twice then,

“If only you'll hold on…”
G|-------------------------------|--------|
D|-------------------------------|--------|
A|9-(32)--5-(32)--------7-(24)---|--7x----|
E|---------------5-(32)----------|--------|

Chorus
G|-------------------------------|
D|-------------------------------|
A|---------5-(32)----------------|
E|--2-(32)--------5-(32)—0-(32)--|

Verse
“I've got a lotta oh hell of a lot to say....”
G|-----------------------------------------|
D|-----------------------------------------|
A|-----------------------------------------|
E|--5~------------------5~-----------------|

Pre Chorus
“A perfect life for a perfect…”
G|---------------------------------------|
D|---------------------------------------|
A|--------------------------------5-(8)--|
E|--5-(24)—-4-(8)—-5-(16)—-7-(8)---------| play this twice then,

“If only you'll hold on…”
G|-------------------------------|--------|
D|-------------------------------|--------|
A|9-(32)--5-(32)--------7-(24)---|--7x----|
E|---------------5-(32)----------|--------|

The bass only plays a couple of notes in the interlude but they ring out
G|-------------------------------------------------------|
D|-------------------------------------------------------|
A|-------------------------------------------------------|
E|--5~--------------—-5~---------------5~----------------|

G|-----------------------------------------|-------|
D|-----------------------------------------|-------|
A|--7-(32)--9-(32)--5-(32)--------7-(32)---|-------|
E|-------------------------5-(32)----------|---0---|

That’s it. This is my first tab it should be pretty right. It’s a good song and easy to play
exibições 662

0 comentários

mostrar mais comentários

Conseguiu tocar?

0 tocaram 0 ainda não

Grave um vídeo tocando Valkryie Missile e mande pra gente!

00:00 / 00:00
outros vídeos desta música
repetir qualidade Automático
Outros vídeos desta música
00:00 / 00:00
Automático
OK