Cifra Club

Carry On

Angra

Tab de baixo: Principal
exibições 48.215
[Introdução]

Parte 01 de 04 
G|----------------------------------------------|
D|----------------------------------------------|
A|-0--0--0--0--5-5--0--0--0--0--3-3-3--2-2-2----|
E|----------------------------------------------|
B|----------------------------------------------|

G|----------------------------------------------|
D|----------------------------------------------|
A|-0--0--0--0--5-5--5-5-5-5--5-5-5-5--5-5-5-5---|
E|----------------------------------------------|
B|----------------------------------------------|

G|----------------------------------------------|
D|----------------------------------------------|
A|-5-5-5-5--7-7-7-7--7-7-7-7--7-7-7-7--7-7-7-7--|
E|----------------------------------------------|
B|----------------------------------------------|


Parte 02 de 04
G|----------------------------------------------|
D|----------------------------------------------|
A|-0--0--0--0--5-5--0--0--0--0--3-3-3--2-2-2----|
E|----------------------------------------------|
B|----------------------------------------------|

G|----------------------------------------------|
D|----------------------------------------------|
A|-0--0--0--0--5-5--5-5-5-5--5-5-5-5--5-5-5-5---|
E|----------------------------------------------|
B|----------------------------------------------|

G|----------------------------------------------|
D|----------------------------------------------|
A|-5-5-5-5--7-7-7-7--7-7-7-7--7-7-7-7--7-7-7-7--|
E|----------------------------------------------|
B|----------------------------------------------|

G|----------------------------------------------|
D|----------------------------------------------|
A|-12-12-12-12--12-12-12-12--12-12-12-12--------|
E|----------------------------------------------|
B|----------------------------------------------|

G|----------------------------------------------|
D|----------------------------------------------|
A|-12-12-12-12--10-10-10-10--10-10-10-10--------|
E|----------------------------------------------|
B|----------------------------------------------|

G|----------------------------------------------|
D|----------------------------------------------|
A|-10-10-10-10--10-10-10-10---------------------|
E|----------------------------------------------|
B|----------------------------------------------|

G|----------------------------------------------|
D|----------------------------------------------|
A|-5-5-5-5--5-5-5-5--5-5-5-5--5-5-5-5-----------|
E|----------------------------------------------|
B|----------------------------------------------|

G|----------------------------------------------|
D|----------------------------------------------|
A|-7-7-7-7--7-7-7-7--7-7-7-7--7-7-7-7-----------|
E|-------------------------------------0--------|
B|----------------------------------------------|


Parte 03 de 04

G|-10-9-7---------------------------------------|
D|--------10-9-7--6-7-9-7--6--------------------|
A|---------------------------8-7-5----0---------|
E|---------------------------------8------------|
B|----------------------------------------------|


Parte 04 de 04
   +  +  +  + +  +  +  +  +  + +  +    
G|-10---------------10--------------------------|
D|----12---------12----12---------12------------|
A|-------11-8-11----------11-8-11---------------|
E|----------------------------------------------|
B|----------------------------------------------|
 
  +  +  +  +  +  +  +  +  +  +  +  +
G|-13----------------13-------------------------|
D|----15----------15----15----------15----------|
A|-------14-11-14----------14-11-14-------------|
E|----------------------------------------------|
B|----------------------------------------------|

   +  +  +  +  +  +  +  +  +  +  +  + 
G|-16----------------16-------------------------|
D|----18----------18----18----------18----------|
A|-------17-14-17----------17-14-17-------------|
E|----------------------------------------------|
B|----------------------------------------------|

   +  +  +  +  +  +  +  +  +  +  +  +  + 
G|-19----------------19----------------19-------|
D|----21----------21----21----------21----------|
A|-------20-17-20----------20-17-20-------------|
E|----------------------------------------------|
B|----------------------------------------------|


[Primeira Parte]

Simple minded brain...

Parte 01 de 03
G|----------------------------------------------|
D|----------------------------------------------|
A|-0--0-0-0-0--0--0-0-0-0--0--0-0-0-0-----------|
E|----------------------------------------------|
B|----------------------------------------------|

G|----------------------------------------------|
D|----------------------------------------------|
A|-0--0-0-0-0--5--3--3-3-3-3--------------------|
E|---------------------------3-3-3-3------------|
B|----------------------------------------------|

G|----------------------------------------------|
D|----------------------------------------------|
A|-0--0-0-0-0--0--0-0-0-0--0--0-0-0-0-----------|
E|----------------------------------------------|
B|----------------------------------------------|

G|----------------------------------------------|
D|----------------------------------------------|
A|-0--0-0-5-7--8--8-8-8--8-8-8--8-8-8--8-8------|
E|----------------------------------------------|
B|----------------------------------------------|

G|----------------------------------------------|
D|----------------------------------------------|
A|-5--5-5-5--5-5-5------------------------------|
E|------------------3-3-------------------------|
B|----------------------------------------------|

Repete Parte 1 de 3
G|----------------------------------------------|
D|----------------------------------------------|
A|-0--0-0-0-0--0--0-0-0-0--0--0-0-0-0-----------|
E|----------------------------------------------|
B|----------------------------------------------|

G|----------------------------------------------|
D|----------------------------------------------|
A|-0--0-0-0-0--5--3--3-3-3-3--------------------|
E|---------------------------3-3-3-3------------|
B|----------------------------------------------|

G|----------------------------------------------|
D|----------------------------------------------|
A|-0--0-0-0-0--0--0-0-0-0--0--0-0-0-0-----------|
E|----------------------------------------------|
B|----------------------------------------------|

G|----------------------------------------------|
D|----------------------------------------------|
A|-0--0-0-5-7--8--8-8-8--8-8-8--8-8-8--8-8------|
E|----------------------------------------------|
B|----------------------------------------------|

G|----------------------------------------------|
D|----------------------------------------------|
A|-5--5-5-5--5-5-5------------------------------|
E|------------------3-3-------------------------|
B|----------------------------------------------|


Parte 02 de 03
G|-----------------7-5--------------------------|
D|---------------------5-7----------------------|
A|-5--5-5-5--5-5-----------0--------------------|
E|---------------------------3--3--1--1-1-1-1---|
B|----------------------------------------------|

G|----------------------------------------------|
D|----------------------------------------------|
A|-------------3------8--8-8-8--8-8-8--8-8-8----|
E|-1--1-1-1-1-----3-3---------------------------|
B|----------------------------------------------|


Parte 03 de 03
G|----------------------------------------------|
D|----------------------------------------------|
A|-8--0-----------------------------------------|
E|------3-3--1--1-1-1-1--1--1-1-1-1--0-0-0-0-0--|
B|----------------------------------------------|


[Introdução 2]

Parte 01 de 04
G|----------------------------------------------|
D|----------------------------------------------|
A|-12-12-12-12--12-12-12-12--12-12-12-12--------|
E|----------------------------------------------|
B|----------------------------------------------|

G|----------------------------------------------|
D|----------------------------------------------|
A|-12-12-12-12--12-12-12-12--12-12-12-12--------|
E|----------------------------------------------|
B|----------------------------------------------|

G|----------------------------------------------|
D|----------------------------------------------|
A|----------------------------------------------|
E|-10-10-10-10--10-10-10-10---------------------|
B|----------------------------------------------|


Parte 02 de 04
G|----------------------------------------------|
D|----------------------------------------------|
A|-12-12-12-12--12-12-12-12--12-12-12-12--------|
E|----------------------------------------------|
B|----------------------------------------------|

G|----------------------------------------------|
D|----------------------------------------------|
A|-12-12-12-12--12-12-12-12--12-12-12-12--------|
E|----------------------------------------------|
B|----------------------------------------------|

G|----------------------------------------------|
D|----------------------------------------------|
A|----------------------------------------------|
E|-8-8-8-8--7-7-7-7-----------------------------|
B|----------------------------------------------|


Parte 03 de 04
G|----------------------------------------------|
D|----------------------------------------------|
A|-12-12-12-12--12-12-12-12--12-12-12-12--------|
E|----------------------------------------------|
B|----------------------------------------------|

G|----------------------------------------------|
D|----------------------------------------------|
A|-12-12-12-12--12-12-12-12--12-12-12-12--------|
E|----------------------------------------------|
B|----------------------------------------------|

G|----------------------------------------------|
D|----------------------------------------------|
A|----------------------------------------------|
E|-10-10-10-10--10-10-10-10---------------------|
B|----------------------------------------------|


Parte 04 de 04 
G|----------------------------------------------|
D|----------------------------------------------|
A|----------------------------------------------|
E|-10-10-10-10--10-10-10-10--10-10-10-10--------|
B|----------------------------------------------|

G|----------------------------------------------|
D|----------------------------------------------|
A|----------------------------------------------|
E|-10-10-10-10--12-12-12-12--12-12-12-12--------|
B|----------------------------------------------|

G|----------------------------------------------|
D|----------------------------------------------|
A|----------------------------------------------|
E|-12-12-12-12--12-12-12-12---------------------|
B|----------------------------------------------|


[Segunda parte]

Now we'll have to face another day...

Parte 01 de 03 
G|----------------------------------------------|
D|----------------------------------------------|
A|-0--0-0-0-0--0--0-0-0-0--0--0-0-0-0-----------|
E|----------------------------------------------|
B|----------------------------------------------|

G|----------------------------------------------|
D|----------------------------------------------|
A|-0--0-0-0-0--5--3--3-3-3-3--------------------|
E|---------------------------3-3-3-3------------|
B|----------------------------------------------|

G|----------------------------------------------|
D|----------------------------------------------|
A|-0--0-0-0-0--0--0-0-0-0--0--0-0-0-0-----------|
E|----------------------------------------------|
B|----------------------------------------------|

G|----------------------------------------------|
D|----------------------------------------------|
A|-0--0-0-5-7--8--8-8-8--8-8-8--8-8-8--8-8------|
E|----------------------------------------------|
B|----------------------------------------------|

G|----------------------------------------------|
D|----------------------------------------------|
A|-5--5-5-5--5-5-5------------------------------|
E|------------------3-3-------------------------|
B|----------------------------------------------|


Repete Parte 01 de 03
G|----------------------------------------------|
D|----------------------------------------------|
A|-0--0-0-0-0--0--0-0-0-0--0--0-0-0-0-----------|
E|----------------------------------------------|
B|----------------------------------------------|

G|----------------------------------------------|
D|----------------------------------------------|
A|-0--0-0-0-0--5--3--3-3-3-3--------------------|
E|---------------------------3-3-3-3------------|
B|----------------------------------------------|

G|----------------------------------------------|
D|----------------------------------------------|
A|-0--0-0-0-0--0--0-0-0-0--0--0-0-0-0-----------|
E|----------------------------------------------|
B|----------------------------------------------|

G|----------------------------------------------|
D|----------------------------------------------|
A|-0--0-0-5-7--8--8-8-8--8-8-8--8-8-8--8-8------|
E|----------------------------------------------|
B|----------------------------------------------|

G|----------------------------------------------|
D|----------------------------------------------|
A|-5--5-5-5--5-5-5------------------------------|
E|------------------3-3-------------------------|
B|----------------------------------------------|


Parte 02 de 03
G|-----------------7-5--------------------------|
D|---------------------5-7----------------------|
A|-5--5-5-5--5-5-----------0--------------------|
E|---------------------------3--3--1--1-1-1-1---|
B|----------------------------------------------|

G|----------------------------------------------|
D|----------------------------------------------|
A|-------------3------8--8-8-8--8-8-8--8-8-8--0-|
E|-1--1-1-1-1-----3-3---------------------------|
B|----------------------------------------------|


Parte 03 de 03
G|----------------------------------------------|
D|----------------------------------------------|
A|----------------------------------------------|
E|-3-3--1--1-1-1-1--1--1-1-1----3--3--3--3--3---|
B|----------------------------------------------|


[Refrão]

So, carry on...

Parte 01 de 04
G|----------------------------------------------|
D|----------------------------------------------|
A|-3-3-3-3--3-3-3-3--3-3-3-3--3-3-3-3-----------|
E|----------------------------------------------|
B|----------------------------------------------|

G|----------------------------------------------|
D|----------------------------------------------|
A|----------------------------------------------|
E|-3-3-3-3--3-3-3-3--3-3-3-3--3-3-3-3-----------|
B|----------------------------------------------|

G|----------------------------------------------|
D|----------------------------------------------|
A|----------------------------------------------|
E|-5-5-5-5--5-5-5-5--5-5-5-5--5-5-5-5-----------|
B|----------------------------------------------|


Parte 02 de 04
G|----------------------------------------------|
D|----------------------------------------------|
A|-7-7-7-7--7-7-7-7--7-7-7-7--7-7-7-7-----------|
E|----------------------------------------------|
B|----------------------------------------------|

G|----------------------------------------------|
D|----------------------------------------------|
A|-8-8-8-8--8-8-8-8--8-8-8-8--8-8-8-8-----------|
E|----------------------------------------------|
B|----------------------------------------------|

G|----------------------------------------------|
D|----------------------------------------------|
A|----------------------------------------------|
E|-8-8-8-8--8-8-8-8--8-8-8-8--8-8-8-8-----------|
B|----------------------------------------------|


Parte 03 de 04
G|----------------------------------------------|
D|----------------------------------------------|
A|-10-10-10-10--10-10-10-10--10-10-10-10--------|
E|----------------------------------------------|
B|----------------------------------------------|

G|----------------------------------------------|
D|----------------------------------------------|
A|-10-10-10-10----------------------------------|
E|----------------------------------------------|
B|----------------------------------------------|


Repete Parte 03 de 04
G|----------------------------------------------|
D|----------------------------------------------|
A|-10-10-10-10--10-10-10-10--10-10-10-10--------|
E|----------------------------------------------|
B|----------------------------------------------|

G|----------------------------------------------|
D|----------------------------------------------|
A|-10-10-10-10----------------------------------|
E|----------------------------------------------|
B|----------------------------------------------|


Parte 04 de 04
G|----------------------------------------------|
D|-10-10-10-10--10-10-10-10--10-10-10-10--------|
A|----------------------------------------------|
E|----------------------------------------------|
B|----------------------------------------------|

G|----------------------------------------------|
D|-10-10-10-10--9-9-9-9--9-9-9-9--5-5-5-5--5-5--|
A|----------------------------------------------|
E|----------------------------------------------|
B|----------------------------------------------|

G|----------------------------------------------|
D|-5-5--7-7-7-7--7-7-7-7--9-9-9-9--7-7-7-7------|
A|----------------------------------------------|
E|----------------------------------------------|
B|----------------------------------------------|

G|----------------------------------------------|
D|-5-5-5-5--5-5-5-5-----------------------------|
A|-------------------7-7-7-7--7-7-7-7-----------|
E|----------------------------------------------|
B|----------------------------------------------|

G|----------------------------------------------|
D|----------------------------------------------|
A|-8-8-8-8--8-8-8-8--8-8-8-8--8-8-8-8---10------|
E|----------------------------------------------|
B|----------------------------------------------|


[Solo de Guitarra]

Parte 01 de 11 
G|----------------------------------------------|
D|----------------------------------------------|
A|-0--0--0--0--0-0---5--5-5-5-5--5--5-5-5-5-----|
E|----------------------------------------------|
B|----------------------------------------------|

G|----------------------------------------------|
D|----------------------------------------------|
A|-4---5--5-5-5-5--5--5-5-5-5--3----------------|
E|----------------------------------------------|
B|----------------------------------------------|

G|----------------------------------------------|
D|----------------------------------------------|
A|-8--8-8-8-8--8--8-8-8-8-----------------------|
E|-------------------------8--6--6-6-6-6--6-----|
B|----------------------------------------------|

G|----------------------------------------------|
D|----------------------------------------------|
A|-------------5--5-5-5-5--5--5-5-5-5--4--------|
E|-6-6-6-6--5-----------------------------------|
B|----------------------------------------------|

G|----------------------------------------------|
D|----------------------------------------------|
A|-5--5-5-5-5--5--5-5-5-5--3--8--8-8-8-8--8-----|
E|----------------------------------------------|
B|----------------------------------------------|

G|----------------------------------------------|
D|----------------------------------------------|
A|-8-8-8-8--------------------------------------|
E|----------8--6--6-6-6-6--6--6-6-6-6-----------|
B|----------------------------------------------|

G|----------------------------------------------|
D|----------------------------------------------|
A|-7-7-7--7-7-7--7-7-7-7--7-7-7-7---------------|
E|----------------------------------------------|
B|----------------------------------------------|


Parte 02 de 11
G|----------------------------------------------|
D|----------------------------------------------|
A|----------------------------------------------|
E|-1-1-1-1--1-1-1-1--1-1-1-1--1-1-1-1-----------|
B|----------------------------------------------|

G|----------------------------------------------|
D|----------------------------------------------|
A|----------------------------------------------|
E|-1-1-1-1--1-1-1-1--1-1-1-1--1-1-1-1-----------|
B|----------------------------------------------|

G|----------------------------------------------|
D|----------------------------------------------|
A|-3-3-3-3--3-3-3-3-----------------------------|
E|-------------------3-3-3-3--3-3-3-3-----------|
B|----------------------------------------------|

G|----------------------------------------------|
D|----------------------------------------------|
A|-3-3-3-3--3-3-3-3-----------------------------|
E|-------------------3-3------------------------|
B|----------------------------------------------|


Parte 03 de 11
G|----------------------------------------------|
D|----------------------------------------------|
A|----------------------------------------------|
E|-1-1-1-1--1-1-1-1--1-1-1-1--1-1-1-1-----------|
B|----------------------------------------------|

G|----------------------------------------------|
D|----------------------------------------------|
A|-5-5-5-5--5-5-5-5--5-5-5-5--5-5-5-5-----------|
E|----------------------------------------------|
B|----------------------------------------------|

G|----------------------------------------------|
D|----------------------------------------------|
A|----------------------------------------------|
E|-3-3-3-3--3-3-3-3--3-3-3-3--3-3-3-3-----------|
B|----------------------------------------------|

G|----------------------------------------------|
D|----------------------------------------------|
A|----------------------------------------------|
E|-5-5-5-5--5-5-5-5--3-3-3-3--3-3-3-3-----------|
B|----------------------------------------------|


Parte 04 de 11
G|----------------------------------------------|
D|-3-3-3-3--3-3-3-3--3-3-3-3--3-3-3-------------|
A|----------------------------------------------|
E|----------------------------------------------|
B|----------------------------------------------|

G|----------------------------------------------|
D|-3-3-3-3--3-3-3-3--3-3-3-3--3-3-3-------------|
A|----------------------------------------------|
E|----------------------------------------------|
B|----------------------------------------------|

G|----------------------------------------------|
D|----------------------------------------------|
A|-3-3-3-3--3-3-3-3--2-2-2-2--2-2-2-2-----------|
E|----------------------------------------------|
B|----------------------------------------------|


Parte 05  de 11
G|----------------------------------------------|
D|----------------------------------------------|
A|-7-7-7-7--7-7-7-7--5-5-5-5--------------------|
E|----------------------------------------------|
B|----------------------------------------------|

G|----------------------------------------------|
D|-3-3-3-3--3-3-3-3--3-3-3-3--3-3-3-------------|
A|----------------------------------------------|
E|----------------------------------------------|
B|----------------------------------------------||

G|----------------------------------------------|
D|----------------------------------------------|
A|-5-5-5-5--5-5-5-5--5-5-5-5--5-5-5-5-----------|
E|----------------------------------------------|
B|----------------------------------------------|

G|----------------------------------------------|
D|----------------------------------------------|
A|-7--7--7--7--7--7--7\-------------------------|
E|----------------------------------------------|
B|----------------------------------------------|


Parte 06 de 11 
G|----------------------------------------------|
D|----------------------------------------------|
A|---------5-3-------7h9------9h10-------12-10--|
E|-0-0-0-0-----0-0-0-----0-0-------0-0-0--------|
B|----------------------------------------------|

G|----------------------------------------------|
D|----------------------------------------------|
A|---------7p5----------------------------------|
E|-0-0-0-0-----7-5------------------------------|
B|----------------------------------------------|


Parte 07 de 11
G|----------------------------------------------|
D|----------------------------------------------|
A|---------5-3-------7h9------9h10-------12-10--|
E|-0-0-0-0-----0-0-0-----0-0-------0-0-0--------|
B|----------------------------------------------|

G|----------------------------------------------|
D|----------------------------------------------|
A|----------------------------------------------|
E|-0-0-0-0--12\---------------------------------|
B|----------------------------------------------|


Parte 08 de 11
G|----------------------------------------------|
D|----------------------------------------------|
A|---------5-3-------7h9------9h10-------12-10--|
E|-0-0-0-0-----0-0-0-----0-0-------0-0-0--------|
B|----------------------------------------------|

G|----------------------------------------------|
D|----------------------------------------------|
A|---------7p5----------------------------------|
E|-0-0-0-0-----7-5------------------------------|
B|----------------------------------------------|


Parte 09 de 11
G|----------------------------------------------|
D|----------------------------------------------|
A|---------5-3-------7h9------9h10---------2----|
E|-0-0-0-0-----0-0-0-----0-0-------0-0-3-5---5--|
B|----------------------------------------------|

G|----------------------------------------------|
D|----------------------------------------------|
A|-5-4--4-4-4-4--4-4-4-4--4-4-4-4--4-4-4-4------|
E|----------------------------------------------|
B|----------------------------------------------|

G|----------------------------------------------|
D|----------------------------------------------|
A|-4-4-4-4--4-4---------------------------------|
E|--------------0-------------------------------|
B|----------------------------------------------|


Parte 10 de 11
G|----------------------------------------------|
D|----------------------------------------------|
A|---------5-3-------7h9------9h10-------12-10--|
E|-0-0-0-0-----0-0-0-----0-0-------0-0-0--------|
B|----------------------------------------------|

G|----------------------------------------------|
D|----------------------------------------------|
A|---------7p5----------------------------------|
E|-0-0-0-0-----7-5------------------------------|
B|----------------------------------------------|


Parte 11 de 11
G|----------------------------------------------|
D|----------------------------------------------|
A|---------5-3-------7h9------9h10---------2----|
E|-0-0-0-0-----0-0-0-----0-0-------0-0-3-5---5--|
B|----------------------------------------------|

G|----------------------------------------------|
D|----------------------------------------------|
A|-5-4--4-4-4-4--4-4-4-4--4-4-4-4--4-4-4-4------|
E|----------------------------------------------|
B|----------------------------------------------|

G|----------------------------------------------|
D|----------------------------------------------|
A|-4-4-4-4--4-4-4-4--4-4-5--5-5-5--5-5-5-5------|
E|----------------------------------------------|
B|----------------------------------------------|

G|----------------------------------------------|
D|----------------------------------------------|
A|-5-5-5--5-5-5--7--7-7-7-7--7-7-7-7--7-7-7-7---|
E|----------------------------------------------|
B|----------------------------------------------|

G|----------------------------------------------|
D|----------------------------------------------|
A|-7-7-7-7--0-----------------------------------|
E|----------------------------------------------|
B|----------------------------------------------|


[Terceira parte]

Parte 01 de 03
G|-------------7-5------------------------------|
D|-------------------5-7------------------------|
A|-5--5-5-5-5------------0----------------------|
E|--------------------------3--3--1--1-1-1-1-1--|
B|----------------------------------------------|

G|----------------------------------------------|
D|----------------------------------------------|
A|---------------3-----8-8-8-8--8-8-8--8-8-8-8-8|
E|-1--1-1-1-1-1----3-3--------------------------|
B|----------------------------------------------|


Parte 02 de 03
G|----------------------------------------------|
D|----------------------------------------------|
A|-0--------------------------------------------|
E|----3--3--1--1-1-1-1-1--1--1-1-1-1-1----------|
B|----------------------------------------------|

G|----------------------------------------------|
D|----------------------------------------------|
A|----------------------------------------------|
E|-3-3-3-3--3-3-3-3--3-3-3-3--3-3-3-3-----------|
B|----------------------------------------------|


[Refrão 2]

So, carry on...

Parte 01 de 04
G|----------------------------------------------|
D|----------------------------------------------|
A|-3-3-3-3--3-3-3-3--3-3-3-3--3-3-3-3-----------|
E|----------------------------------------------|
B|----------------------------------------------|

G|----------------------------------------------|
D|----------------------------------------------|
A|----------------------------------------------|
E|-3-3-3-3--3-3-3-3--3-3-3-3--3-3-3-3-----------|
B|----------------------------------------------|

G|----------------------------------------------|
D|----------------------------------------------|
A|----------------------------------------------|
E|-5-5-5-5--5-5-5-5--5-5-5-5--5-5-5-5-----------|
B|----------------------------------------------|


Parte 02 de 04
G|----------------------------------------------|
D|----------------------------------------------|
A|-7-7-7-7--7-7-7-7--7-7-7-7--7-7-7-7-----------|
E|----------------------------------------------|
B|----------------------------------------------|

G|----------------------------------------------|
D|----------------------------------------------|
A|-8-8-8-8--8-8-8-8--8-8-8-8--8-8-8-8-----------|
E|----------------------------------------------|
B|----------------------------------------------|

G|----------------------------------------------|
D|----------------------------------------------|
A|----------------------------------------------|
E|-8-8-8-8--8-8-8-8--8-8-8-8--8-8-8-8-----------|
B|----------------------------------------------|


Parte 03 de 04
G|----------------------------------------------|
D|----------------------------------------------|
A|-10-10-10-10--10-10-10-10--10-10-10-10--------|
E|----------------------------------------------|
B|----------------------------------------------|

G|----------------------------------------------|
D|----------------------------------------------|
A|-10-10-10-10----------------------------------|
E|----------------------------------------------|
B|----------------------------------------------|


Repete Parte 03 de 04
G|----------------------------------------------|
D|----------------------------------------------|
A|-10-10-10-10--10-10-10-10--10-10-10-10--------|
E|----------------------------------------------|
B|----------------------------------------------|

G|----------------------------------------------|
D|----------------------------------------------|
A|-10-10-10-10----------------------------------|
E|----------------------------------------------|
B|----------------------------------------------|


Parte 04 de 04
G|----------------------------------------------|
D|-10-10-10-10--10-10-10-10--10-10-10-10--------|
A|----------------------------------------------|
E|----------------------------------------------|
B|----------------------------------------------|

G|----------------------------------------------|
D|-10-10-10-10--9-9-9-9--9-9-9-9--5-5-5-5--5-5--|
A|----------------------------------------------|
E|----------------------------------------------|
B|----------------------------------------------|

G|----------------------------------------------|
D|-5-5--7-7-7-7--7-7-7-7--9-9-9-9--7-7-7-7------|
A|----------------------------------------------|
E|----------------------------------------------|
B|----------------------------------------------|

G|----------------------------------------------|
D|-5-5-5-5--5-5-5-5-----------------------------|
A|-------------------7-7-7-7--7-7-7-7-----------|
E|----------------------------------------------|
B|----------------------------------------------|

G|----------------------------------------------|
D|----------------------------------------------|
A|-8-8-8-8--8-8-8-8--8-8-8-8--8-8-8-8--10-------|
E|----------------------------------------------|
B|----------------------------------------------|


[Refrão 3]

So, carry on...

Parte 01 de 06
G|----------------------------------------------|
D|----------------------------------------------|
A|-5-5-5-5--5-5-5-5--5-5-5-5--5-5-5-5-----------|
E|----------------------------------------------|
B|----------------------------------------------|

G|----------------------------------------------|
D|----------------------------------------------|
A|-0-0-0-0--0-0-0-0--0-0-0-0--0-0-0-0-----------|
E|----------------------------------------------|
B|----------------------------------------------|

G|----------------------------------------------|
D|----------------------------------------------|
A|-2-2-2-2--2-2-2-2--2-2-2-2--2-2-2-2-----------|
E|----------------------------------------------|
B|----------------------------------------------|

G|----------------------------------------------|
D|----------------------------------------------|
A|----------------------------------------------|
E|-2-2-2-2--2-2-2-2--2-2-2-2--2-2-2-2-----------|
B|----------------------------------------------|


Parte 02 de 06 
G|----------------------------------------------|
D|----------------------------------------------|
A|----------------------------------------------|
E|-3-3-3-3--3-3-3-3--3-3-3-3--3-3-3-3-----------|
B|----------------------------------------------|

G|----------------------------------------------|
D|----------------------------------------------|
A|-5-5-5-5--5-5-5-5--5-5-5-5--5-5-5-5-----------|
E|----------------------------------------------|
B|----------------------------------------------|


Parte 03 de 06 
G|----------------------------------------------|
D|----------------------------------------------|
A|-0-0-0-0--0-0-0-0--0-0-0-0--0-0-0-0-----------|
E|----------------------------------------------|
B|----------------------------------------------|

G|----------------------------------------------|
D|----------------------------------------------|
A|-0-0-0-0--0-0-0-0--0-0-0-0--0-0-0-0-----------|
E|----------------------------------------------|
B|----------------------------------------------|


Parte 04 de 06 (2x)
G|----------------------------------------------|
D|----------------------------------------------|
A|-5-5-5-5--5-5-5-5--5-5-5-5--5-5-5-5-----------|
E|----------------------------------------------|
B|----------------------------------------------|

G|----------------------------------------------|
D|----------------------------------------------|
A|-4-4-4-4--4-4-4-4--0-0-0-0--0-0-0-0-----------|
E|----------------------------------------------|
B|----------------------------------------------|

G|----------------------------------------------|
D|----------------------------------------------|
A|-2-2-2-2--2-2-2-2--4-4-4-4--2-2-2-2-----------|
E|----------------------------------------------|
B|----------------------------------------------|

G|----------------------------------------------|
D|----------------------------------------------|
A|-0-0-0-0--0-0-0-0-----------------------------|
E|-------------------2-2-2-2--2-2-2-2-----------|
B|----------------------------------------------|

G|----------------------------------------------|
D|----------------------------------------------|
A|----------------------------------------------|
E|-3-3-3-3--3-3-3-3--3-3-3-3--3-3-3-3-----------|
B|----------------------------------------------|

G|----------------------------------------------|
D|----------------------------------------------|
A|----------------------------------------------|
E|-5-5-5-5--5-5-5-5--5-5-5-5--5-5-5-5-----------|
B|----------------------------------------------|

Repete Parte 04 de 06

G|----------------------------------------------|
D|----------------------------------------------|
A|-5-5-5-5--5-5-5-5--5-5-5-5--5-5-5-5-----------|
E|----------------------------------------------|
B|----------------------------------------------|

G|----------------------------------------------|
D|----------------------------------------------|
A|-4-4-4-4--4-4-4-4--0-0-0-0--0-0-0-0-----------|
E|----------------------------------------------|
B|----------------------------------------------|

G|----------------------------------------------|
D|----------------------------------------------|
A|-2-2-2-2--2-2-2-2--4-4-4-4--2-2-2-2-----------|
E|----------------------------------------------|
B|----------------------------------------------|

G|----------------------------------------------|
D|----------------------------------------------|
A|-0-0-0-0--0-0-0-0-----------------------------|
E|-------------------2-2-2-2--2-2-2-2-----------|
B|----------------------------------------------|

G|----------------------------------------------|
D|----------------------------------------------|
A|----------------------------------------------|
E|-3-3-3-3--3-3-3-3--3-3-3-3--3-3-3-3-----------|
B|----------------------------------------------|

G|----------------------------------------------|
D|----------------------------------------------|
A|----------------------------------------------|
E|-5-5-5-5--5-5-5-5--5-5-5-5--5-5-5-5-----------|
B|----------------------------------------------|


Parte 05 de 06 
G|----------------------------------------------|
D|----------------------------------------------|
A|-2-2-2-2--2-2-2-2--2-2-2-2--2-2-2-2-----------|
E|----------------------------------------------|
B|----------------------------------------------|

G|----------------------------------------------|
D|----------------------------------------------|
A|-2-2-2-2--2-2-2-2--2-2-2-2--2-0---------------|
E|----------------------------------------------|
B|----------------------------------------------|

G|----------------------------------------------|
D|----------------------------------------------|
A|----------------------------------------------|
E|-3-3-3-3--3-3-3-3--3-3-3-3--3-3-3-3-----------|
B|----------------------------------------------|

G|----------------------------------------------|
D|----------------------------------------------|
A|----------------------------------------------|
E|-5-5-5-5--5-5-5-5--5-5-5-5--5-5-5-5-----------|
B|----------------------------------------------|


Parte 06 de 06
G|----------------------------------------------|
D|----------------------------------------------|
A|-2-2-2-2--2-2-2-2--2-2-2-2--2-2-2-2-----------|
E|----------------------------------------------|
B|----------------------------------------------|

G|----------------------------------------------|
D|----------------------------------------------|
A|-2-2-2-2--2-2-2-2--2-2-2-2--2-0---------------|
E|----------------------------------------------|
B|----------------------------------------------|

G|----------------------------------------------|
D|----------------------------------------------|
A|----------------------------------------------|
E|-3-3-3-3--3-3-3-3--3-3-3-3--3-3-3-3--5--------|
B|----------------------------------------------|
Composição: Andre Matos / MatosColaboração e revisão:
  • Reginaldo Costa
  • Junior
  • César Augusto

0 comentários

    mostrar mais comentários

    Conseguiu tocar?

    5tocaram0ainda não

    Grave um vídeo tocando Carry On e mande pra gente!

    00:00 / 00:00
    outros vídeos desta música
    repetirqualidadeautomática
    Outro vídeos desta música
      00:00 / 00:00
      automática
      Capítulos
      • Tocando a música
      • Apresentação / Equipamentos
      • Afinação / Configuração pedal
      • Tab - Introdução - Parte 1 de 4
      • Tab - Introdução - Parte 2 de 4
      • Tab - Introdução - Parte 3 de 4
      • Tab - Introdução - Parte 4 de 4
      • Dicas Primeira Parte - Introdução 2
      • Tab - Primeira Parte - Parte 1 de 3
      • Tab - Primeira Parte - Parte 2 de 3
      • Tab - Primeira Parte - Parte 3 de 3
      • Tab - Introdução 2 - Parte 1 de 4
      • Tab - Introdução 2 - Parte 2 de 4
      • Tab - Introdução 2 - Parte 3 de 4
      • Tab - Introdução 2 - Parte 4 de 4
      • Dicas Segunda Parte - Refrão
      • Tab - Segunda Parte - Parte 1 de 3
      • Tab - Segunda Parte - Parte 2 de 3
      • Tab - Segunda Parte - Parte 3 de 3
      • Tab - Refrão - Parte 1 de 4
      • Tab - Refrão - Parte 2 de 4
      • Tab - Refrão - Parte 3 de 4
      • Tab - Refrão - Parte 4 de 4
      • Dicas Solo
      • Tab - Solo - Parte 1 de 11
      • Tab - Solo - Parte 2 de 11
      • Tab - Solo - Parte 3 de 11
      • Tab - Solo - Parte 4 de 11
      • Tab - Solo - Parte 5 de 11
      • Tab - Solo - Parte 6 de 11
      • Tab - Solo - Parte 7 de 11
      • Tab - Solo - Parte 8 de 11
      • Tab - Solo - Parte 9 de 11
      • Tab - Solo - Parte 10 de 11
      • Tab - Solo - Parte 11 de 11
      • Dicas Terceira Parte - Refrão 2
      • Tab - Terceira Parte - Parte 1 de 2
      • Tab - Terceira Parte - Parte 2 de 2
      • Tab - Refrão 2 - Parte 1 de 4
      • Tab - Refrão 2 - Parte 2 de 4
      • Tab - Refrão 2 - Parte 3 de 4
      • Tab - Refrão 2 - Parte 4 de 4
      • Dicas finais
      • Tab - Refrão 3 - Parte 1 de 6
      • Tab - Refrão 3 - Parte 2 de 6
      • Tab - Refrão 3 - Parte 3 de 6
      • Tab - Refrão 3 - Parte 4 de 6
      • Tab - Refrão 3 - Parte 5 de 6
      • Tab - Refrão 3 - Parte 6 de 6
      • Encerramento
      OK