Enviar cifraEntrar

Carry On

Angra

Tab de baixo: Principal
exibições 44.073
Intro:
G|------------------------------------------------------------------------------
D|------------------0-0-------------------------------------------0-0-----------
A|--0---0---0---0--------0---0---0---0---333-222--0---0---0---0-----------------
E|------------------------------------------------------------------------------
                                                                              
				       Intro 2:
G|------------------------------------|-----------------------------------------
D|-0000000000000000-22222222222222222-|----------------0-0----------------------
A|------------------------------------|-0---0---0---0-------0---0---0---0--333--
E|------------------------------------|-----------------------------------------
                                                                              
G|------------------------------------------------------------------------------
D|----------------------0-0--00000000000000000-2222222222222222-----------------
A|-222--0---0---0---0-----------------------------------------------------------
E|------------------------------------------------------------------------------

G|-2222222222222222-000000000000000---------------------------------------|-----
D|----------------------------------0000000000000000-2222222222222222-----|-----
A|------------------------------------------------------------------------|-----
E|------------------------------------------------------------------------|-----                        

G|--10-9-7-5-4-2-1-2-4-2-0-----------|-------------------------------------|-----
D|-------------------------3-2-0-----|-------------------------------------|-----
A|-3-----------------------------3-2-|-0-0-0-0-0-0-0-0-0-0-0-0-0-0-0-0-0-0-|-----
E|-----------------------------------|-------------------------------------|-----

Solo:
G|--------------------------------------|-------------------------------------|
D|--15----------------15----------------|--18-15----------15-18-15----------15|
A|-----17-14----14-17----17-14----14-17-|--------17-14-17----------17-14-17---|
E|-----------16----------------16-------|-------------------------------------|

G|--16----------------16----------------|-19-16----------16-19-16----------16-|
D|-----18-15----15-18----18-15----15-18-|-------18-15-18----------18-15-18----|
A|-----------17----------------17-------|-------------------------------------|
E|--------------------------------------|-------------------------------------|
                                                                              
G|-----------------------------------------------------------------------------
D|--------------------0000000000000000-----------------------------------------
A|---0000000000000000------------------33333333----------0000000000000000------
E|----------------------------------------------3-3-3-3------------------------
                                                                              
G|---------------------------------|
D|-333333333333-000000000----------|
A|---------------------------------|
E|------------------------33333333-|
                               
Ponte:
G|---------------7-5-2p0h2------------------------------------------------------
D|---0-0-0-0-0-0----------------------------------------333333333333------------
A|--------------------------0---------------------3-------------------0---------
E|----------------------------3-3--1111111111111----3-3-----------------3-3-111-
                                                                              
	 (1º time)	(2º/3º times)
G|--------|---------|---------|---
D|--------|---------|---------|---
A|--------|---------|---------|---
E|-111111-|-00000---|--33333--|---

(Intro / Vocal / Ponte)

Refrão:
G|------------------------------------------------------------------------------
D|-----------------------------------------------------222222222222222----------
A|---3333333333333333-----------------0000000000000000--------------------------
E|--------------------333333333333333-------------------------------------------
                                                                              
G|------------------------------------------------------------------|-----------
D|-3333333333333333-----------------5555555555555555555555555555555-|-----------
A|------------------3333333333333333--------------------------------|-----------
E|------------------------------------------------------------------|-----------

G|-5555555555555555-44444444-00000000-2222222244442222-00000000-----------------
D|--------------------------------------------------------------22222222--------
A|------------------------------------------------------------------------------
E|------------------------------------------------------------------------------
                                                                              
G|-3333333333333333--5-|
D|---------------------|
A|---------------------|
E|---------------------|
                                                                              
Solo:
G|-----------------------|------------------------------------------------------
D|-----------------------|------------------------------------------------------
A|---0---0---0---0---0-0-|--55555555555-444444444444-555555555555-33333333333---
E|-----------------------|------------------------------------------------------
                                                                              
G|-----------------------------------------------------|------------------------
D|-333333333333----------------------------------------|------------------------
A|--------------333333333333-111111111111-000000000000-|-5555555555555----------
E|-----------------------------------------------------|------------------------
                                                                              
G|------------------------------------------------------------------------------
D|---------------------------------------------333333333333---------------------
A|-4444444444444-55555555555555-33333333333333--------------3333333333333-------
E|------------------------------------------------------------------------------

G|---------------------------|--------------------------------------------------
D|--------------222222222222-|--------------------------------------------------
A|-111111111111--------------|------------------3333----------------------------
E|---------------------------|-1111111111111111------3333-5555-3333-------------
                                                                              
G|------------------------------------------------------------------------------
D|------------------------------------------------------------------------------
A|--------------55555555555555-------------------------------------------3333---
E|-111111111111----------------3333333333333-5555-3333-11111111111111111--------
                                                                              
G|-----------------------------------------------------------|
D|-----------------------------------------------------------|
A|-----------------------------555555555555-7-7-7-7-7-7-7-7--|
E|-3333-5555-3333-111111111111---------------0-0-0-0-0-0-0-0-|

G|--------------------------------------------------||
D|----------------------2-4---4-5----7-5------------||
A|-------------5-3----------------------------7-5---||
E|---000000000-----0000-----00----00-----0000-----7-||
                                                                              
G|------------------------------------------------------------------------------
D|--------------------2-4----45----7-5--------------------------------2-4----4--
A|-----------5-3---------------------------7-5---------------5-3----------------
E|--00000000-----0000-----00----00-----0000----7---000000000-----0000-----00----

G|------0-2-4-2--7-6------------------||-----------------------------------14-|
D|-5--2-------------------------------||--------------------------------------|
A|-------------------4444444444444444-||-5555555555555555-7777777777777777-12-|
E|------------------------------------||--------------------------------------|
  • 1
  • 2
  • 3
  • 4
  • 5
  • 6
  • 7
  • 8
  • 9
  • 10
  • 11
  • 12
    Composição: Andre Matos / MatosColaboração e revisão:
    • Junior
    • César Augusto

    0 comentários

      mostrar mais comentários

      Conseguiu tocar?

      2tocaram0ainda não

      Grave um vídeo tocando Carry On e mande pra gente!

      00:00 / 00:00
      outros vídeos desta música
      repetirqualidadeautomática
      • automática
      Outro vídeos desta música
        00:00 / 00:00
        automática
        • automática
        fecharplay/pause subir/descer velocidade
        fechar
        OK