Enviar cifraEntrar

Ego Painted Grey Intro

Angra

Cifra: Principal
exibições 5.789
Tom: A
Kiko Loureiro


E||--------|-------|-------|-------|-------|-------|-------|-------|--------|
B||--------|-------|-------|-------|-------|-------|-------|-------|--------|
G||*-------|-------|-------|-------|-------|-------|-------|-------|-------*|
D||*-------|-------|-------|-------|-------|-------|-------|-------|-------*|
A||--------|-------|-------|-------|-------|-------|-------|-------|--------|
E||--------|-------|-------|-------|-------|-------|-------|-------|--------|


          E   E   E   E   E   E   E   E      E   E   E   E   E   E   E   E   

-------|----------------

----------------
-|
----------------

----------------
--|
-------|-----14--12------14--12------14--|------14--12------14--12------14--|
-------|-------------11----------11------|--11----------11----------11------|
-------|
----------------

----------------
-|
----------------

----------------
--|
-------|--9
----------------
--------------|
----------------

----------------
--|
-------|
----------------

----------------
-|
----------------

----------------
--|


   E   E   E   E   E   E   E   E      E   E   E   E   E   E   E   E   

------14----------14----------14--|------14----------14----------14--|
----------12----------12----------|----------12----------12----------|
--------------12----------12------|--12----------12----------12------|
----------------

----------------
--|
----------------

----------------
--|
--10
----------------
--------------|
----------------

----------------
--|

----------------

----------------
--|
----------------

----------------
--|


  E   E   E   E   E   E   E   E      E   E   E   E   E   E   E   E   

----------------

----------------
-|
----------------

----------------
--|
-----14--12------14--12------14--|------14--12------14--12------14--|
-------------11----------11------|--11----------11----------11------|

----------------

----------------
-|
----------------

----------------
--|
--9
----------------
--------------|
----------------

----------------
--|

----------------

----------------
-|
----------------

----------------
--|


   E   E   E   E   E   E   E   E      E   E   E   E   E   E   E   E   

------14----------14----------14--|------14----------14----------14--|
----------12----------12----------|----------12----------12----------|
--------------12----------12------|--12----------12----------12------|
----------------

----------------
--|
----------------

----------------
--|
--10
----------------
--------------|
----------------

----------------
--|

----------------

----------------
--|
----------------

----------------
--|


  E   E   E   E   E   E   E   E      E   E   E   E   E   E   E   E   

----------------
-------------14--|
----------------

----------------
--|
-----14--12------14--12----------|------14--12------15------12--14--|
-------------11----------11------|--11----------11------11----------|

----------------

----------------
-|
----------------

----------------
--|
--9
----------------
--------------|
----------------

----------------
--|

----------------

----------------
-|
----------------

----------------
--|


   E   E   E   E   E   E   E   E      E   E   E   E   E   E   E   E   

----------------
--------------14--|------15----------19------15--17--|
------15--12------15--12----------|----------12----------12----------|
--------------12----------12------|--12----------12
----------------
--|

----------------

----------------
--|
----------------

----------------
--|
--10
----------------
--------------|
----------------

----------------
--|

----------------

----------------
--|
----------------

----------------
--|


  E   E   E   E   E   E   E   E      E   E   E   E   E   E   E   E   

----------------
-------------14--|
----------------

----------------
--|
-----14--12------14--12----------|------14--12------15------12--14--|
-------------11----------11------|--11----------11------11----------|

----------------

----------------
-|
----------------

----------------
--|
--9
----------------
--------------|
----------------

----------------
--|

----------------

----------------
-|
----------------

----------------
--|


   E   E   E   E   E   E   E   E      E   E   E   E   E   E   E   E    

------14----------14----------14--|------14----------14----------19\--|
----------12----------12----------|----------12----------12-----------|
--------------12----------12------|--12----------12----------12-------|
----------------

----------------
--|
----------------

----------------
---|
--10
----------------
--------------|
----------------

----------------
---|

----------------

----------------
--|
----------------

----------------
---|


  PM PM    PM PM    PM PM         NH   NH   NH   NH   NH   NH   NH  
  E  E  E  E  E  E  E  E     E    E    E    E    E    E    E    E   

----------------
----------|
----------------

----------------
--------|

----------------
----------|
----------------
----5
----------------
-|

----------------
----------|----------5
----------------
-5-------|
--4--4-----4--4-----4--4--|-----4-------4-------4-------4--|
--2--2-----2--2-----2--2--|
----------------

----------------
--------|
--2--2-----2--2-----2--2--|
----------------

----------------
--------|


  PM PM    PM PM    PM PM       PM PM PM PM           
  E  E  E  E  E  E  E  E     E  S  S  E  E  H         

----------------
----------|
----------------
----------|

----------------
----------|
----------------
----------|

----------------
----------|
----------------
----------|
--4--4-----4--4-----4--4--|
----------------
-7--------|
--2--2-----2--2-----2--2--|-----2--2--2--2--5--------|
--2--2-----2--2-----2--2--|-----2--2--2--2--5--------|


  PM PM    PM PM    PM PM         NH   NH   NH   NH   NH   NH   NH  
  E  E  E  E  E  E  E  E     E    E    E    E    E    E    E    E   

----------------
----------|
----------------

----------------
--------|

----------------
----------|
----------------
----5
----------------
-|

----------------
----------|----------5
----------------
-5-------|
--4--4-----4--4-----4--4--|-----4-------4-------4-------4--|
--2--2-----2--2-----2--2--|
----------------

----------------
--------|
--2--2-----2--2-----2--2--|
----------------

----------------
--------|


  PM PM    PM PM    PM PM       PM PM PM PM PM PM                               
  E  E  E  E  E  E  E  E     E  S  S  E  E  E  E  Q                             

----------------
----------|
----------------
------------|-------|-------|-------|

----------------
----------|
----------------
------------|-------|-------|-------|

----------------
----------|
----------------
------------|-------|-------|-------|
--4--4-----4--4-----4--4--|
----------------
-------7----|-------|-------|-------|
--2--2-----2--2-----2--2--|-----2--2--2--2--2--2--5----|-------|-------|-------|
--2--2-----2--2-----2--2--|-----2--2--2--2--2--2--5----|-------|-------|-------|


                     v  PM PM PM PM         PM PM        v  PM     
                  E  E  E  E  E  E  Q       E  E  Q.     E  E  E   

-------|-------|-----x----------------
---|---------------x--------|
-------|-------|-----x
----------------
---|---------------x--------|
-------|-------|-----x
----------------
---|---------------x--------|
-------|-------|--------4--4--4--4-------|--4--4------------4--4--|
-------|-------|--------2--2--2--2--5----|--2--2------------2--2--|
-------|-------|--------2--2--2--2--5----|--2--2------------2--2--|


     v  PM PM PM PM                                v  PM PM    v  PM PM        
  E  E  E  E  E  E  Q                           E  E  E  E  E  E  E  E         

-----x----------------
---|-------|-----|-----|-----x-----------x--------|-----|
-----x
----------------
---|-------|-----|-----|-----x-----------x--------|-----|
-----x
----------------
---|-------|-----|-----|-----x-----------x--------|-----|
--------4--4--4--4--7----|-------|-----|-----|--------4--4--------4--4--|-----|
--------2--2--2--2--5----|-------|-----|-----|--------2--2--------2--2--|-----|
--------2--2--2--2--5----|-------|-----|-----|--------2--2--------2--2--|-----|


        PM PM        PM PM           PM     PM PM    PM    PM  
        E  E  S S E  E  E  S S E     E  S S E  E  E  E  E  E   

-----|----------------
------------|
----------------
-----------|
-----|
----------------
------------|
----------------
-----------|
-----|
----------------
------------|
----------------
-----------|
-----|--------4-4-4--------4-4-4--|-----4-4-------4-----4-----|
-----|--2--2--2-2-2--2--2--2-2-2--|--2--2-2-2--2--2--2--2--2--|
-----|--2--2---------2--2---------|--2------2--2-----2-----2--|


  H        E  Q    E     E  E  Q    E  Q.        H        E  Q    E   

----------------
------|
----------------
-------|
----------------
------|

----------------
------|
----------------
-------|
----------------
------|
-----------7-------7--|-----7-------7---------|
----------------
------|
-----------7-------7--|-----7-------7---------|-----------4-------4--|
-----------5-------5--|-----5-------5---------|-----------4-------4--|

----------------
------|
----------------
-------|-----------2-------2--|


  E  E  Q    E  Q.        W                   H        E  Q.       

----------------
-------|--3
----------------
|--L--------L----------|

----------------
-------|--3
----------------
|--L--------L----------|

----------------
-------|--0
----------------
|--L--------L----------|
-----4-------4---------|--0
----------------
|--L--------L----------|
-----4-------4---------|
----------------
---|
----------------
------|
-----2-------2---------|--3
----------------
|--L--------L--2b------|


                                  NH   NH   NH   NH   NH       
  E  E  E  E  E  E  E  E     E    E    E    E    E    E  Q     

----------------
----------|
----------------

----------------
---|

----------------
----------|
----------------
---------5--L----|

----------------
----------|----------5-------5------------|
--2--2-----2--2-----2--2--|-----4-------4
----------------
-|
--2--2-----2--2-----2--2--|
----------------

----------------
---|
--0--0-----0--0-----0--0--|
----------------

----------------
---|


  E   E   E   E   E   E   E   E     E   E   E   E   E   E   E   E   

----------------

----------------
-|
----------------

----------------
-|
-----12----------12----------12--|-----12----------12----------12--|
---------11----------11----------|---------11----------11----------|
--9----------12----------12------|-------------12----------12------|

----------------

----------------
-|
----------------

----------------
-|

----------------

----------------
-|
----------------

----------------
-|


   E   E   E   E   E   E   E   E      E   E   E   E   E   E   E   E   

------14----------14----------14--|------14----------14----------14--|
----------14----------14----------|----------14--------------14------|
--------------14----------14------|--14----------14------14----------|
----------------

----------------
--|
----------------

----------------
--|
--12
----------------
--------------|
----------------

----------------
--|

----------------

----------------
--|
----------------

----------------
--|


  E   E   E   E   E   E   E   E      E   E   E   E   E   E   E   E   

-----14----------14----------14--|------14----------14--------------|
---------12----------12----------|----------12--------------12--14--|
-------------12----------12------|--12----------12------12----------|
----------------

----------------
-|
----------------

----------------
--|

----------------

----------------
-|
----------------

----------------
--|

----------------

----------------
-|
----------------

----------------
--|


  E   E   E   E   E   E   E   E     E   E   E   E   E   E   E   E   

-----14----------14----------14--|-----14----------14----------14--|
---------12----------12----------|---------12----------12----------|
--9----------12----------12------|-------------12----------12------|
----------------

----------------
-|
----------------

----------------
-|

----------------

----------------
-|
----------------

----------------
-|

----------------

----------------
-|
----------------

----------------
-|


  E   E   E   E   E   E   E   E     E   E   E   E   E   E   E   E   

----------------

----------------
-|
----------------

----------------
-|
-----12----------12----------12--|-----12----------12----------12--|
---------11----------11----------|---------11----------11----------|
--9----------12----------12------|-------------12----------12------|

----------------

----------------
-|
----------------

----------------
-|

----------------

----------------
-|
----------------

----------------
-|


   E   E   E   E   E   E   E   E      E   E   E   E   E   E   E   E   

------14----------14----------14--|------14----------14----------14--|
----------14----------14----------|----------14--------------14------|
--------------14----------14------|--14----------14------14----------|
----------------

----------------
--|
----------------

----------------
--|
--12
----------------
--------------|
----------------

----------------
--|

----------------

----------------
--|
----------------

----------------
--|


  E   E   E   E   E   E   E   E      E   E   E   E   E   E   E   E   

-----14----------14----------14--|------14----------14--------------|
---------12----------12----------|----------12--------------12--14--|
-------------12----------12------|--12----------12------12----------|
----------------

----------------
-|
----------------

----------------
--|

----------------

----------------
-|
----------------

----------------
--|

----------------

----------------
-|
----------------

----------------
--|


  E   E   E   E   E   E   E   E     E   E   E   E   E   E   E   E           

-----14----------14----------14--|-----14----------14----------14--|-------|
---------12----------12----------|---------12----------12----------|-------|
--9----------12----------12------|-------------12----------12------|-------|
----------------

----------------
-|
----------------

----------------
-|-------|

----------------

----------------
-|
----------------

----------------
-|-------|

----------------

----------------
-|
----------------

----------------
-|-------|



-------|-------|-------|-------|-------|-------|-------|
-------|-------|-------|-------|-------|-------|-------|
-------|-------|-------|-------|-------|-------|-------|
-------|-------|-------|-------|-------|-------|-------|
-------|-------|-------|-------|-------|-------|-------|
-------|-------|-------|-------|-------|-------|-------|



  E   E  E  E  Q    E  E     E   E  E  E  E  E  Q       Q    E  E  H         

----------------
----------|
----------------
----------|
----------------
------|

----------------
----------|
----------------
-----5----|--L----x--x--5--------|
--6h--7--7--6--7----x--x--|--6h--7--7--6--7--6-------|
----------------
------|

----------------
----------|
----------------
----------|
----------------
------|

----------------
----------|
----------------
----------|
----------------
------|

----------------
----------|
----------------
----------|
----------------
------|


  H        H           E   E  E  E  Q    E  E     E   E  E  E  E  E  Q     

----------------
----|
----------------
----------|
----------------
----------|
--L
----------------
-|
----------------
----------|---------------7--5--5----|

----------------
----|--6h--7--7--6--7----x--x--|--6h--7--7--6-------------|

----------------
----|
----------------
----------|
----------------
----------|

----------------
----|
----------------
----------|
----------------
----------|

----------------
----|
----------------
----------|
----------------
----------|


  W                   H        H           E    E   E  E   Q    E  E   

----------------
---|
----------------
----|
----------------
-------------|
--L
----------------
|--L
----------------
-|
----------------
-------------|

----------------
---|
----------------
----|--9h--10--10--9--10----------|

----------------
---|
----------------
----|
----------------
-------x--x--|

----------------
---|
----------------
----|
----------------
-------------|

----------------
---|
----------------
----|
----------------
-------------|


  E    E   E  E   E  E  Q       Q    E  E  H           H        H         

----------------
-------------|
----------------
------|
----------------
----|

----------------
--------8----|--L----------8--------|--L
----------------
-|
--9h--10--10--9--10--9-------|-------x--x-----------|
----------------
----|

----------------
-------------|
----------------
------|
----------------
----|

----------------
-------------|
----------------
------|
----------------
----|

----------------
-------------|
----------------
------|
----------------
----|


  E    E   E  E   Q    E  E     E    E   E  E   E  E  Q       W                 

----------------
-------------|
----------------
-------------|
----------------
---|

----------------
-------------|
----------------
-10--8--8----|--L
----------------
|
--9h--10--10--9--10----------|--9h--10--10--9--------------|
----------------
---|

----------------
-------x--x--|
----------------
-------------|
----------------
---|

----------------
-------------|
----------------
-------------|
----------------
---|

----------------
-------------|
----------------
-------------|
----------------
---|


             NH     NH    
  H          Q      Q     

----------------
---------|

----------------
--5----|
-----------7-----------|

----------------
---------|

----------------
---------|

----------------
---------|


    NH  NH  NH  NH  NH    NH  NH  NH  NH  NH    NH  NH  NH  NH 
    S   S   S   S   S S   S   S   S   S   S S   S   S   S   S  

----------------

----------------

----------------
--------------|

----------------

----------------

----------------
--------------|
--7-7-7-7-7-L
----------------

----------------
-------|

----------------
--------4-4-4-4-4-L-4-4-4-4-|

----------------

----------------

----------------
--------------|

----------------

----------------

----------------
--------------|


    NH    NH  NH  NH  NH  NH    NH  NH  NH    NH  NH  NH                   
    S S   S   S   S   S   S S   S   S   S S   S   S   S S                  

----------------

----------------

----------------
----------|-------|-------|

----------------

----------------

----------------
----------|-------|-------|

----------------

----------------

----------------
----------|-------|-------|
--4-L
----------------
-------4-4-4---4-4-4---|-------|-------|
--------5-5-5-5-5
----------------
---------------|-------|-------|

----------------

----------------

----------------
----------|-------|-------|


                                   S S  S S  S  S  S S  S S  S S S  S S S  

-------|-------|-------|-------|----------------

----------------
----------|
-------|-------|-------|-------|--12-0-12-0-10-12-10-0-10-0-10-0-8-10-8-0-|
-------|-------|-------|-------|
----------------

----------------
----------|
-------|-------|-------|-------|
----------------

----------------
----------|
-------|-------|-------|-------|
----------------

----------------
----------|
-------|-------|-------|-------|
----------------

----------------
----------|


  S S S S S S S S S S S S S S S S  

----------------

----------------
--|
--8-0-8-0-7-8-7-0-7-0-7-0-5-7-5-0-|

----------------

----------------
--|

----------------

----------------
--|

----------------

----------------
--|

----------------

----------------
--|


     c/Whammy                                                  
     S       S    S   S    S    S    S   S  S S  S S S  S S S  

----------------

----------------

----------------
--------------|
--12-----0-12-0-10-12-10-0-10-0-10-0-8-10-8-0-|

----------------

----------------

----------------
--------------|

----------------

----------------

----------------
--------------|

----------------

----------------

----------------
--------------|

----------------

----------------

----------------
--------------|


  S S S S S S S S S S S S S S S S  

----------------

----------------
--|
--8-0-8-0-7-8-7-0-7-0-7-0-5-7-5-0-|

----------------

----------------
--|

----------------

----------------
--|

----------------

----------------
--|

----------------

----------------
--|


   S S  S S  S  S  S S    S   S    S   S   S    S   S   S  

----------------

----------------

----------------
----------|
--12-0-12-0-10-12-10-0-10-0-10-0-8-10-8-0-|

----------------

----------------

----------------
----------|

----------------

----------------

----------------
----------|

----------------

----------------

----------------
----------|

----------------

----------------

----------------
----------|


  S S S S S S S S S S S S S S S S  

----------------

----------------
--|
--8-0-8-0-7-8-7-0-7-0-7-0-5-7-5-0-|

----------------

----------------
--|

----------------

----------------
--|

----------------

----------------
--|

----------------

----------------
--|


     S   S    S   S    S    S    S   S  S S  S S  S  S  S S  

----------------

----------------

----------------
------------|
--12-0-12-0-10-12-10-0-15-0-15-0-12-15-12-0-|

----------------

----------------

----------------
------------|

----------------

----------------

----------------
------------|

----------------

----------------

----------------
------------|

----------------

----------------

----------------
------------|


     S   S    S   S    S    S    S   S  S S  S S  E   E   

----------------

----------------

----------------
---------|
--17-0-17-0-15-17-15-0-19-0-19-0-20\-----|

----------------

----------------

----------------
---------|

----------------

----------------

----------------
---------|

----------------

----------------

----------------
---------|

----------------

----------------

----------------
---------|


   S   S  S  S   S S   S  S  S   S  S  S   S  S   S   S  

----------------

----------------
-------------12h-15p-12-|

----------------

----------------

----------------
--------|

----------------
---9h-12p-9-16p-12----12h-16------------|

----------------

----------------
---14
----------------
---|
--14p-10----10h-14
----------------

----------------
------|
---------12
----------------

----------------
-------------|


                                   T                         
   S   S  S  S   S  S   S   S  T   T   S  S  S  S   S  S  S  

----------------
---12h-15p-12-19h-20p-19-15-12--------------|

----------------

----------------

----------------
------------|
--16p-12----12h-16
----------------
-------------16p-12----12-|
---------14
----------------

----------------
-----------14----|

----------------

----------------

----------------
------------|

----------------

----------------

----------------
------------|


   T            T             T              T            T      

   |---3--|                |---3--|                              

   S   S  S  S  S  S   S   S  S   S   S   S  S   S  S  S  S   S  

----------------
--10h-12h-14-15p-14p-12p-10
----------------
-----|

----------------

----------------

----------------

----------------
|
--14p-11p-7-11-14
----------------
-----------14p-11p-7-11-14p-12-|

----------------

----------------

----------------

----------------
|

----------------

----------------

----------------

----------------
|

----------------

----------------

----------------

----------------
|


   T          T     T           T           T     
   S  S  S S  S  S  S  S  S  S  S  S  S  S  S  S  

----------------

----------------

----------------
-|

----------------

----------------

----------------
-|

----------------

----------------

----------------
-|
--12p-9p-7-9-12p-7
----------------
---------------|

----------------
---12p-9p-5h-9-12p-9p-5h-9-12p-9-|

----------------

----------------

----------------
-|


   T              T     T        T                               
   |--3--|              |--3--|  |---3--| |--3--|  |--3--|       
   S  S  S  S  S  S  S  S  S  S  S  S   S S  S  S  S  S  S S  S  

----------------

----------------

----------------

----------------
|

----------------

----------------

----------------
-------------12-|

----------------

----------------
----------9-11-12-14-12-11-9----|

----------------
-------10p-5h-7-12p-9h-10
----------------
-------|
--10p-7p-5p-3h-5-10p-7
----------------

----------------
----------|

----------------

----------------

----------------

----------------
|



                     |--3--|                          

   S  S  S  S  S  S  S  S  S  S  S  S  S  S  S  S  S  

--------12-14-15-12-17-19-17-15-12----------------
---|
--15-17
----------------
------------17-15-13-12-13-12-|

----------------

----------------

----------------
-----|

----------------

----------------

----------------
-----|

----------------

----------------

----------------
-----|

----------------

----------------

----------------
-----|


       T                                                             

                                 |--3--|  |--3--|  |--3--|  |--3--|  

   S   S   S   S  S   S   S   S  S  S  S  S  S  S  S  S  S  S  S  S  

----------------

----------------

----------------

----------------
----|

----------------

----------------

----------------

----------------
----|
--14h-19p-14s-11-14h-19p-14s-11-11-19-14-11
----------------
14-19-11-|

----------------

----------------
------------19-11-14-12-19----------|

----------------

----------------

----------------

----------------
----|

----------------

----------------

----------------

----------------
----|


   \1/                                                         

       |---3---|      |---3---|      |---3---|      |---3---|  

   E   S   S   S  E   S   S   S  E   S   S   S  E   S   S   S  

--15-------------15-------------15-------------15-------------|
------17p-15p-12-----17p-15p-12-----17p-15p-12-----17p-15p-12-|
----------------

----------------

----------------
--------------|

----------------

----------------

----------------
--------------|

----------------

----------------

----------------
--------------|

----------------

----------------

----------------
--------------|


   \1/                \1/                 \1/            \1/          

            |---3--|          |--3--|           |--3--|               

   Q.       S   S  S  Q.      S  S  S     Q     S  S  S  E  H         

----------------

----------------
------|--19-------------22--L--------|
--20p------17p-15----22------17-15----|--------17-15
----------------
-|

----------------
--16---------------16-|--------------16--------------|

----------------

----------------
------|
----------------
--------------|

----------------

----------------
------|
----------------
--------------|

----------------

----------------
------|
----------------
--------------|



              |---3---|               

  Q.      E   E   E   E   S  S  S  S  

--L------17--19--20--19--17-15-19-17-|
----------------

----------------
-----|

----------------

----------------
-----|

----------------

----------------
-----|

----------------

----------------
-----|

----------------

----------------
-----|


   |--3--|  |--3--|  |--3--|  |--3--|  |--3-|  |--3-| |--3-|  |--3--|  
   S  S  S  S  S  S  S  S  S  S  S  S  S S  S  S  S S S S  S  S  S  S  

--15-14-17-15-14-12----------------

----------------

----------------
---|

----------------
----15-13-12-10
----------------

----------------
-------|

----------------

----------------
14-12-11-9
----------------
------------|

----------------

----------------
-----------14-12-10-9-7-9-10-12-14-12-|

----------------

----------------

----------------

----------------
------|

----------------

----------------

----------------

----------------
------|



   |------3-----|                   |------3-----|                

   Q      Q     Q     H             Q      Q     Q     H          

----------------

----------------
|
----------------

----------------
|
--16s----17----19----17b--------|--17s----19----20----19b--------|

----------------

----------------
|
----------------

----------------
|

----------------

----------------
|
----------------

----------------
|

----------------

----------------
|
----------------

----------------
|

----------------

----------------
|
----------------

----------------
|



   |-----3-----|                                           

   Q     Q     Q     H             H           H           

----------------
---------------|
----------------
----------|
--19----20----22----20b--------|--22br--------22pb--------|

----------------
---------------|
----------------
----------|

----------------
---------------|
----------------
----------|

----------------
---------------|
----------------
----------|

----------------
---------------|
----------------
----------|


   S S  S S  S  S  S S  S S  S S S  S S S    S S S S S S S S S S S S S S S S  

----------------

----------------
----------|
----------------

----------------
--|
--12-0-12-0-10-12-10-0-10-0-10-0-8-10-8-0-|--8-0-8-0-7-8-7-0-7-0-7-0-5-7-5-0-|

----------------

----------------
----------|
----------------

----------------
--|

----------------

----------------
----------|
----------------

----------------
--|

----------------

----------------
----------|
----------------

----------------
--|

----------------

----------------
----------|
----------------

----------------
--|


   S S  S S  S  S  S S    S   S    S   S   S    S   S   S  

----------------

----------------

----------------
----------|
--12-0-12-0-10-12-10-0-10-0-10-0-8-10-8-0-|

----------------

----------------

----------------
----------|

----------------

----------------

----------------
----------|

----------------

----------------

----------------
----------|

----------------

----------------

----------------
----------|


   S S  S S  S  S  S S    S   S    S   S    Q      

----------------

----------------

----------------
--|
--15-0-15-0-12-15-12-0-19-0-19-0-20\----|

----------------

----------------

----------------
--|

----------------

----------------

----------------
--|

----------------

----------------

----------------
--|

----------------

----------------

----------------
--|


  S S S S S S S S S S S S S S S S    S S S S S S S S S S S S S S S S            

----------------

----------------
--|
----------------

----------------
--|----|----|

----------------

----------------
--|
----------------

----------------
--|----|----|

----------------

----------------
--|
----------------

----------------
--|----|----|

----------------

----------------
--|
----------------

----------------
--|----|----|
--3-3-3-3-3---3-3-3-3-3---3-3-3-3-|--3---3-3-3-3-3---3-3-3---3-3-3---|----|----|
--3-3-3-3-3---3-3-3-3-3---3-3-3-3-|--3---3-3-3-3-3---3-3-3---3-3-3---|----|----|


  PM PM    PM PM    PM PM         NH   NH   NH   NH   NH   NH   NH  
  E  E  E  E  E  E  E  E     E    E    E    E    E    E    E    E   

----------------
----------|
----------------

----------------
--------|

----------------
----------|
----------------
----5
----------------
-|

----------------
----------|----------5
----------------
-5-------|
--4--4-----4--4-----4--4--|-----4-------4-------4-------4--|
--2--2-----2--2-----2--2--|
----------------

----------------
--------|
--2--2-----2--2-----2--2--|
----------------

----------------
--------|


  PM PM    PM PM    PM PM       PM PM PM PM           
  E  E  E  E  E  E  E  E     E  S  S  E  E  H         

----------------
----------|
----------------
----------|

----------------
----------|
----------------
----------|

----------------
----------|
----------------
----------|
--4--4-----4--4-----4--4--|
----------------
-7--------|
--2--2-----2--2-----2--2--|-----2--2--2--2--5--------|
--2--2-----2--2-----2--2--|-----2--2--2--2--5--------|


  PM PM    PM PM    PM PM         NH   NH   NH   NH   NH   NH   NH  
  E  E  E  E  E  E  E  E     E    E    E    E    E    E    E    E   

----------------
----------|
----------------

----------------
--------|

----------------
----------|
----------------
----5
----------------
-|

----------------
----------|----------5
----------------
-5-------|
--4--4-----4--4-----4--4--|-----4-------4-------4-------4--|
--2--2-----2--2-----2--2--|
----------------

----------------
--------|
--2--2-----2--2-----2--2--|
----------------

----------------
--------|


  PM PM        PM     PM PM           PM PM PM PM         PM PM PM PM  
  E  E  S S E  E  S S E  E     S S E  S  S  S  S  S S S S S  S  S  S   

----------------
------------|
----------------

----------------
---------|

----------------
------------|
----------------

----------------
---------|

----------------
------------|
----------------

----------------
---------|
--------4-4-4-----4-4-------|--4-4-4--------------4-4-4-4-------------|
--2--2--2-2-2--2--2-2-2--2--|--2-2-2--2--2--2--2--2-2-2-2-2--2--2--2--|
--2--2---------2------2--2--|---------2--2--2--2----------2--2--2--2--|


  H        E  Q    E     E  E  Q    E  Q.        H        E  Q    E   

----------------
------|
----------------
-------|
----------------
------|

----------------
------|
----------------
-------|
----------------
------|
-----------7-------7--|-----7-------7---------|
----------------
------|
-----------7-------7--|-----7-------7---------|-----------4-------4--|
-----------5-------5--|-----5-------5---------|-----------4-------4--|

----------------
------|
----------------
-------|-----------2-------2--|


  E  E  Q    E  Q.        W                   H        E  Q.       

----------------
-------|--3
----------------
|--L--------L----------|

----------------
-------|--3
----------------
|--L--------L----------|

----------------
-------|--0
----------------
|--L--------L----------|
-----4-------4---------|--0
----------------
|--L--------L----------|
-----4-------4---------|
----------------
---|
----------------
------|
-----2-------2---------|--3
----------------
|--L--------L--2b------|


  E  E  E  E  E  E  E  E     E  E  E  E  E   E   E  E   

----------------
----------|
----------------
------------|

----------------
----------|
----------------
------------|

----------------
----------|
----------------
------------|
--2--2-----2--2-----2--2--|-----7--2--2--4s--5s--4--2--|
--2--2-----2--2-----2--2--|-----5--2--2--4s--5s--4--2--|
--0--0-----0--0-----0--0--|-----5--0--0--2s--3s--2--0--|


  E   E   E   E   E   E   E   E     E   E   E   E   E   E   E   E   

----------------

----------------
-|
----------------

----------------
-|
-----12----------12----------12--|-----12----------12----------12--|
---------11----------11----------|---------11----------11----------|
--9----------12----------12------|-------------12----------12------|

----------------

----------------
-|
----------------

----------------
-|

----------------

----------------
-|
----------------

----------------
-|


   E   E   E   E   E   E   E   E      E   E   E   E   E   E   E   E   

------14----------14----------14--|------14----------14----------14--|
----------14----------14----------|----------14--------------14------|
--------------14----------14------|--14----------14------14----------|
----------------

----------------
--|
----------------

----------------
--|
--12
----------------
--------------|
----------------

----------------
--|

----------------

----------------
--|
----------------

----------------
--|


  E   E   E   E   E   E   E   E      E   E   E   E   E   E   E   E   

-----14----------14----------14--|------14----------14--------------|
---------12----------12----------|----------12--------------12--14--|
-------------12----------12------|--12----------12------12----------|
----------------

----------------
-|
----------------

----------------
--|

----------------

----------------
-|
----------------

----------------
--|

----------------

----------------
-|
----------------

----------------
--|


  E   E   E   E   E   E   E   E     E   E   E   E   E   E   E   E   

-----14----------14----------14--|-----14----------14----------14--|
---------12----------12----------|---------12----------12----------|
--9----------12----------12------|-------------12----------12------|
----------------

----------------
-|
----------------

----------------
-|

----------------

----------------
-|
----------------

----------------
-|

----------------

----------------
-|
----------------

----------------
-|


  E   E   E   E   E   E   E   E     E   E   E   E   E   E   E   E   

----------------

----------------
-|
----------------

----------------
-|
-----12----------12----------12--|-----12----------12----------12--|
---------11----------11----------|---------11----------11----------|
--9----------12----------12------|-------------12----------12------|

----------------

----------------
-|
----------------

----------------
-|

----------------

----------------
-|
----------------

----------------
-|


   E   E   E   E   E   E   E   E      E   E   E   E   E   E   E   E   

------14----------14----------14--|------14----------14----------14--|
----------14----------14----------|----------14--------------14------|
--------------14----------14------|--14----------14------14----------|
----------------

----------------
--|
----------------

----------------
--|
--12
----------------
--------------|
----------------

----------------
--|

----------------

----------------
--|
----------------

----------------
--|

  E   E   E   E   E   E   E   E      E   E   E   E   E   E   E   E   

-----14----------14----------14--|------14----------14--------------|
---------12----------12----------|----------12--------------12--14--|
-------------12----------12------|--12----------12------12----------|
----------------

----------------
-|
----------------

----------------
--|

----------------

----------------
-|
----------------

----------------
--|

----------------

----------------
-|
----------------

----------------
--|

  E   E   E   E   E   E   E   E     E   E   E   E   E   E   E   E               

-----14----------14----------14--|-----14----------14----------14--|-----|-----|
---------12----------12----------|---------12----------12----------|-----|-----|
--9----------12----------12------|-------------12----------12------|-----|-----|
----------------

----------------
-|
----------------

----------------
-|-----|-----|

----------------

----------------
-|
----------------

----------------
-|-----|-----|

----------------

----------------
-|
----------------

----------------
-|-----|-----|


-----|-----|-----|-----|-----|-----|-----||
-----|-----|-----|-----|-----|-----|-----||
-----|-----|-----|-----|-----|-----|-----||
-----|-----|-----|-----|-----|-----|-----||
-----|-----|-----|-----|-----|-----|-----||
-----|-----|-----|-----|-----|-----|-----||


Rafael Bittencourt
   2x

E||--------|-------|-------|-------|-------|-------|-------|-------|--------|
B||--------|-------|-------|-------|-------|-------|-------|-------|--------|
G||*-------|-------|-------|-------|-------|-------|-------|-------|-------*|
D||*-------|-------|-------|-------|-------|-------|-------|-------|-------*|
A||--------|-------|-------|-------|-------|-------|-------|-------|--------|
E||--------|-------|-------|-------|-------|-------|-------|-------|--------|


  Q    Q    E  E  E  E     Q    Q    E  E  E  E     Q    E  E  E  E  E  E   

----------------
--------|
----------------
--------|
----------------
---------|
------------3-----------|------------3-----------|-------------2-----------|
---------------4--------|---------------4--------|
----------------
3--------|
-------5----------5-----|-------5----------5-----|-------4-----------4-----|

----------------
-----5--|
----------------
-----5--|----------4-----------4--|
--3
----------------
-----|--3
----------------
-----|--2
----------------
------|

  Q    E  E  E  E  E  E     Q    E  E  E  E  E  E     Q    E  E  E  E  E  E   

----------------
---------|
----------------
---------|
----------------
---------|
-------------2-----------|-------------0-----------|-------------0-----------|

----------------
3--------|-------2--------2-----4--|-------2--------2-----4--|
-------4-----------4-----|----------4--------4-----|----------4--------4-----|
----------4-----------4--|--2
----------------
------|--2
----------------
------|
--2
----------------
------|
----------------
---------|
----------------
---------|

  Q    E  E  E  E  E  E     Q    E  E  E  E  E  E     Q    Q    E  E  E  E   

----------------
---------|
----------------
---------|
----------------
--------|
-------------0-----------|-------------0-----------|------------3-----------|
-------2--------2-----2--|-------2--------2-----2--|---------------4--------|
----------2--------2-----|----------2--------2-----|-------5----------5-----|
--0
----------------
------|--0
----------------
------|
----------------
-----5--|

----------------
---------|
----------------
---------|--3
----------------
-----|

  Q    Q    E  E  E  E     Q    E  E  E  E  E  E     Q    E  E  E  E  E  E   

----------------
--------|
----------------
---------|
----------------
---------|
------------3-----------|-------------2-----------|-------------2-----------|
---------------4--------|
----------------
3--------|
----------------
3--------|
-------5----------5-----|-------4-----------4-----|-------4-----------4-----|

----------------
-----5--|----------4-----------4--|----------4-----------4--|
--3
----------------
-----|--2
----------------
------|--2
----------------
------|

                  ^                                             
  H.              Q       W                   W                 

---------------12----|--L----------------
|--L
----------------
|
---------------12----|--L
----------------
|--L
----------------
|
---------------12----|--L
----------------
|--L
----------------
|

----------------
-------|
----------------
---|
----------------
---|

----------------
-------|
----------------
---|
----------------
---|
--0---------------L----|--L
----------------
|--L
----------------
|

  W                                                                         

--L----------------
|--------|-------|-------|-------|-------|-------|--------|
--L
----------------
|--------|-------|-------|-------|-------|-------|--------|
--L
----------------
|*-------|-------|-------|-------|-------|-------|-------*|

----------------
---|*-------|-------|-------|-------|-------|-------|-------*|

----------------
---|--------|-------|-------|-------|-------|-------|--------|
--L
----------------
|--------|-------|-------|-------|-------|-------|--------|

Duration Legend
---------------
W - whole
H - half
Q - quarter
E - 8th
S - 16th
T - 32nd
X - 64th
. - note dotted
|-n-|  - n-tuplets

Tablature Legend

----------------

L - tied note
x - dead note
g - grace note
(n) - ghost note
> - accentuded note
NH - natural harmonic
AH - artificial harmonic
TH - tapped harmonic
SH - semi harmonic
PH - pitch harmonic
h - hammer on
p - pull off
b - bend
br - bendRelease
pb - preBend
pbr - preBendRelease
brb - bendReleaseBend
\n/ - tremolo bar dip
\n - tremolo bar dive
-/n - tremolo bar Release up
/n\ - tremolo bar inverted dip
/n - tremolo bar return
-\n - tremolo bar Release down
S - shift slide
s - legato slide
/ -  slide into from below or out of upwards
\ -  slide into from above or out of downwards
~ - vibrato
W - wide vibrato
tr - trill
TP - tremolo picking
T - tapping
S - slap
P - pop
< - fade in
^ - brush up
v - brush down
  • 1
  • 2
  • 3
  • 4
  • 5
  • 6
  • 7
  • 8
  • 9
  • 10
  • 11
  • 12
    Acordes para:
      Composição: Kiko Loureiro / Rafael BittencourtColaboração e revisão:
      • Taino Vieira

      0 comentários

        mostrar mais comentários

        Conseguiu tocar?

        1tocaram0ainda não

        Grave um vídeo tocando Ego Painted Grey Intro e mande pra gente!

        00:00 / 00:00
        outros vídeos desta música
        repetirqualidadeautomática
        • automática
        Outro vídeos desta música
          00:00 / 00:00
          automática
          • automática
          Acordes para:violão e guitarra
          dificuldadeexibiçõescontribuições
          1 versão de Tab de baixoexibiçõescontribuições
          4 versões de Guitar Proformatodownloadscontribuição
          fecharplay/pause subir/descer velocidade
            Acordes para:violão e guitarra
            acordes
            fechar
            OK