Cifra Club

Gentle Change

Angra

Tab de baixo: Principal
exibições 245
                       W                   W                 
G||---------------------------|-------------------|-------------------|
D||---------------------------|-------------------|-------------------|
A||---------------------------|-------------------|-------------------|
E||---------------------------|-------------------|-------------------|
B||---------------------------|-------------------|-------------------|
  W                   W                   W                   W                 
-------------------|-------------------|-------------------|-------------------|
-------------------|-------------------|-------------------|-------------------|
-------------------|-------------------|-------------------|-------------------|
-------------------|-------------------|-------------------|-------------------|
-------------------|-------------------|-------------------|-------------------|
  W                   W                   W                   W                 
-------------------|-------------------|-------------------|-------------------|
-------------------|-------------------|-------------------|-------------------|
-------------------|-------------------|-------------------|-------------------|
-------------------|-------------------|-------------------|-------------------|
-------------------|-------------------|-------------------|--5----------------|
  W                   W                   W                 
-------------------|-------------------|-------------------|
-------------------|-------------------|-------------------|
-------------------|-------------------|-------------------|
-------------------|-------------------|-------------------|
--L----------------|--5----------------|--L----------------|
  Q.     E  Q    E  E     Q    E  E  E  E  E  S S    E  E  E  E  Q    E  E   
-----------------------|--------------------------|-------------------------|
-----------------------|--------------------------|-------------------------|
-----------------------|--------------------------|-------------------------|
--0------0----------0--|----------0-----0---------|--0--------0----------0--|
-----------------------|----------------------3-4-|-------------------------|
  Q    E  E  E  E  E  S S    E  E  E  E  Q    E  E     Q    E  E  E  E  E  S S  
--------------------------|-------------------------|--------------------------|
--------------------------|-------------------------|--------------------------|
--------------------------|-------------------------|--------------------------|
----------0-----0---------|--0--------0----------0--|----------0-----0---------|
----------------------3-4-|-------------------------|----------------------3-4-|
  E  E  E  E  Q    E  E     Q    E  E  E  E  E  E     E.  S E  E  Q    Q     
-------------------------|-------------------------|------------------------|
-------------------------|-------------------------|------------------------|
-------------------------|-------------------------|--4---4-L--4--L---------|
--0--------0----------0--|----------0-----0-----0--|-------------------5----|
-------------------------|-------------------------|------------------------|
  E.  S E  E  H           E.  S H        Q       E.  S E  E  Q    Q     
-----------------------|----------------------|------------------------|
-----------------------|----------------------|------------------------|
-----------9--L--------|----------------------|-------------------6----|
--7---7-L--------------|--5---5-L--------7----|------------------------|
-----------------------|----------------------|--5---5-L--5--5---------|
  E.  S E  E  Q    Q       E.  S E  E  Q    S E.     E.  S E  E  Q    Q     
------------------------|-------------------------|------------------------|
------------------------|-------------------------|------------------------|
--4---4-L--4--L---------|-----------9--L------9---|------------------------|
-------------------5----|--7---7-L----------7-----|--5---5-L--5--L----7----|
------------------------|-------------------------|------------------------|
  S  S S S S S E  H           E  E  E  E  E  E  E  E   
---------------------------|--------------------------|
---------------------------|--------------------------|
---------------------------|--------------------------|
--5h-7-4-5-L-4-------------|--5--5--5--5--4--4--4--4--|
---------------5--5--------|--------------------------|
  E  E  E  E  E  E  E  E     E  E  E  E  E  E  E  E   
--------------------------|--------------------------|
--------------------------|--------4-----------------|
-----------------------4--|--5--5-----5--4--4--4--4--|
--------------------7-----|--------------------------|
--7--7--7--7--5--5--------|--------------------------|
  E  E  E  E  E  E  E  E     E  E  E  S S E  S S Q     
-----4-----4--------------|---------------------------|
--------------------------|--------6------------------|
--2-----2-----0--0--0--0--|---------------4-----------|
--------------------------|--4--4-----4-4------4-7----|
--------------------------|---------------------------|
           |--3--|                                                            
  H        E  E  E  Q       Q    Q    Q    E  E     Q    E  E  E  E  S S S S  
-------------------------|-----------------------|---------------------------|
-------------------------|-----------------------|---------------------------|
-------------------------|-----------------------|---------------------------|
--5--------7--7--7--7----|-----------------------|---------------------------|
-------------------------|--5----L----L----L--5--|----------5-----5----5-5-5-|
  E  S S S S S S S S S S S S S S    S S S S S S S S S S S S S S S S  
---------------------------------|----------------------------------|
-----------7-7---7-7---7-7---7-7-|----7-7---7-7---7-7---7-7---7-7---|
-------7-7-----7-----7-----7-----|--7-----7-----7-----7-----7-----5-|
---------------------------------|----------------------------------|
--5------------------------------|----------------------------------|
  S S S S S S S S S S S S S S S S    S S S S S S S S S S S S S S S S  
----------------------------------|----------------------------------|
----------------------------------|----------------------------------|
--5-5-0-0-5-0-0-5-0-0-5-0-0-5-0-0-|--5-0-0-5-0-0-5-0-0-5-0-0-5-0-0-3-|
----------------------------------|----------------------------------|
----------------------------------|----------------------------------|
  S S S S S S S S S S S S S S S S    S S S S S S S S S S S S S S S S  
----------------------------------|----------------------------------|
----------------------------------|----------------------------------|
--3-3-0-0-3-0-0-3-0-0-3-0-0-3-0-0-|--3-0-0-3-0-0-3-0-0-3-0-0-3-0-0---|
----------------------------------|--------------------------------3-|
----------------------------------|----------------------------------|
  S S S S S S S S S S S S S S S S    S S S S S S S S S S S S S S S S  
----------------------------------|----------------------------------|
----------------------------------|----------------------------------|
----------------------------------|----------------------------------|
--3-3-0-0-3-0-0-3-0-0-3-0-0-3-0-0-|--3-0-0-3-0-0-3-0-0-3-0-0-3-0-0-3-|
----------------------------------|----------------------------------|
  Q    S S S S Q    S S S S    Q    S S S S S S S S S S S S  
-------9-9-9-9------6-6-6---|-------------------4-----------|
----------------------------|-------6-4---4-4-4---6---4-----|
---------------6----------4-|--4--------4-------------------|
--7-------------------------|-----------------------------5-|
----------------------------|-------------------------------|
  Q    S S S S Q    S S S S    H        Q    Q       Q    S S S S Q    S S S S  
----------------------------|---------------------|-------9-9-9-9------6-6-6---|
-------7-7-7-7------9-9-9---|---------------------|----------------------------|
----------------------------|-----------4----6----|--7------------6----------4-|
--5------------7------------|---------------------|----------------------------|
--------------------------5-|--5------------------|----------------------------|
  Q    S S S S S S S S S S S S    Q    S S S S Q    S S S S  
-------------------------------|----------------------------|
-------6-4---6-4-4-6-6---------|-------7-7-7-7------9-9-9-9-|
--4--------4-----------6-7-6---|----------------------------|
-----------------------------5-|--5------------7------------|
-------------------------------|----------------------------|
  S S S S S S E  H           E  E  E  E  E  E  E  E   
--------------------------|--------------------------|
--9-9-7-9-7-9-------------|--------------------------|
--------------------------|--------------------------|
--------------------------|--5--5--5--5--4--4--4--4--|
--------------5--L--------|--------------------------|
  E  E  E  E  E  E  E  E     E  E  E  E  E  E  E  E   
--------------------------|--------------------------|
--------------------------|--------4-----------------|
-----------------------4--|--5--5-----5--4--4--4--4--|
--------------------7-----|--------------------------|
--7--7--7--7--5--5--------|--------------------------|
  E  E  E  E  E  E  E  E     E  E  E  S S E  S S Q     
-----4-----4--------------|---------------------------|
--------------------------|--------6------------------|
--2-----2-----0--0--0--0--|---------------4-----------|
--------------------------|--4--4-----4-4------4-7----|
--------------------------|---------------------------|
           |--3--|  |--3--|                                                   
  H        E  E  E  E  E  E     W                   W                   Q     
-----------------------------|-------------------|-------------------|-------|
-----------------------------|-------------------|-------------------|-------|
-----------------------------|-------------------|-------------------|-------|
--5--------7--7--7--7--7--7--|-------------------|-------------------|-------|
-----------------------------|--5----------------|--L----------------|-------|
  Q       Q       Q       Q       Q       Q       Q       Q       Q     
-------|-------|-------|-------|-------|-------|-------|-------|-------|
-------|-------|-------|-------|-------|-------|-------|-------|-------|
-------|-------|-------|-------|-------|-------|-------|-------|-------|
-------|-------|-------|-------|-------|-------|-------|-------|-------|
-------|-------|-------|-------|-------|-------|-------|-------|-------|
  W                   W                   E.  S Q    E.  S Q     
-------------------|-------------------|--------6----------6----|
-------------------|-------------------|------------------------|
-------------------|--6----------------|--4---4------4---4------|
-------------------|-------------------|------------------------|
--7----------------|-------------------|------------------------|
  E.  S Q    E  E  E  E     E  E  H.              H        E  E  E  E   
--------6----------------|---------------------|-----------------------|
----------------------6--|--5------------------|-----------------------|
--4---4------4--6--7-----|---------------------|-----------------------|
-------------------------|---------------------|--------------------7--|
-------------------------|--------5------------|--L--------5--7--8-----|
  E.  S Q    E.  S Q       E.  S Q    E  E  E  E     E  Q    Q    Q    E   
------------------------|-------------------------|-----------------------|
--------7----------7----|--------7----------------|-----------------------|
------------------------|----------------------7--|--6--3----0---------0--|
--5---5------5---5------|--5---5------5--7--8-----|---------------2-------|
------------------------|-------------------------|-----------------------|
  E  Q    Q    Q    E     E.  S E  E  Q    Q       E.  S E  E  H         
-----------------------|------------------------|-----------------------|
-----------------------|------------------------|-----------------------|
--L--3----6----3----0--|--4---4-L--4--L---------|-----------9--L--------|
-----------------------|-------------------5----|--7---7-L--------------|
-----------------------|------------------------|-----------------------|
  E.  S H        Q       E.  S E  E  Q    Q       E.  S E  E  Q    Q     
----------------------|------------------------|------------------------|
----------------------|------------------------|------------------------|
----------------------|-------------------6----|--4---4-L--4--L---------|
--5---5-L--------7----|------------------------|-------------------5----|
----------------------|--5---5-L--5--5---------|------------------------|
  E.  S E  E  Q    S E.     E.  S E  E  Q    Q       S  S S S S S E  H         
-------------------------|------------------------|---------------------------|
-------------------------|------------------------|---------------------------|
-----------9--L------9---|------------------------|---------------------------|
--7---7-L----------7-----|--5---5-L--5--L----7----|--5h-7-4-5-L-4-------------|
-------------------------|------------------------|---------------5--5--------|
  E  E  E  E  E  E  E  E     E  E  E  E  E  E  E  E   
--------------------------|--------------------------|
--------------------------|--------------------------|
--------------------------|-----------------------4--|
--5--5--5--5--4--4--4--4--|--------------------7-----|
--------------------------|--7--7--7--7--5--5--------|
  E  E  E  E  E  E  E  E     E  E  E  E  E  E  E  E   
--------------------------|-----4-----4--------------|
--------4-----------------|--------------------------|
--5--5-----5--4--4--4--4--|--2-----2-----0--0--0--0--|
--------------------------|--------------------------|
--------------------------|--------------------------|
                                       |--3--|        
  E  E  E  S S E  S S Q       H        E  E  E  Q     
---------------------------|-------------------------|
--------6------------------|-------------------------|
---------------4-----------|-------------------------|
--4--4-----4-4------4-7----|--5--------7--7--7--7----|
---------------------------|-------------------------|
  S E  S E  E  S E  S E  E     S E  S E  E  S E  S E  E   
----------------------------|----------------------------|
----------------------------|----------------------------|
--4----4-L-----4----4-L-----|--5----5-L-----5----5-L-----|
----------------------------|----------------------------|
------------2------------2--|------------3------------3--|
  E  E  E  E  E  E  E  E     E  E  E  E  E  E  E  E   
--------------------------|--------------------------|
--------------------------|--------------------------|
--------------------------|-----------------------4--|
--5--5--5--5--4--4--4--4--|--------------------7-----|
--------------------------|--7--7--7--7--5--5--------|
  E  E  E  E  E  E  E  E     E  E  E  E  H           H         
--------------------------|-----4-----4-----------|-----------|
--------4-----------------|-----------------------|-----------|
--5--5-----5--4--4--4--4--|--2-----2-----0--------|-----------|
--------------------------|-----------------------|--4--------|
--------------------------|-----------------------|-----------|
                                |--3--|  |--3--|                       
  H.           Q       H        E  E  E  E  E  E     W                 
--------------------|-----------------------------|-------------------|
--------------------|-----------------------------|-------------------|
--4-----------------|-----------------------------|-------------------|
---------------7----|--5--------7--7--7--7--7--7--|-------------------|
--------------------|-----------------------------|--5----------------|
  W                   Q.     E  Q    E  E     Q    E  E  E  E  E  S S  
-------------------|-----------------------|--------------------------|
-------------------|-----------------------|--------------------------|
-------------------|-----------------------|--------------------------|
-------------------|-----------------------|----------0-----0---------|
--L----------------|--5------5--5-------5--|----------------------3-4-|
  E  E  E  E  Q    E  E     Q    E  E  E  E  E  S S    H        H         
-------------------------|--------------------------|--------------------|
-------------------------|--------------------------|--------------------|
-------------------------|--------------------------|--7--------6--------|
--0--------0----------0--|----------0-----0-------7-|--------------------|
-------------------------|----------------------5---|--------------------|
  H.           Q       W                   H.           E.  S  
--------------------|-------------------|---------------------|
--------------------|-------------------|---------------------|
--4-----------------|-------------------|-------------------7-|
--------------------|--7----------------|---------------------|
--------------------|-------------------|--5------------------|
  E  S S S S S S S S S S S S S S    S S S S S S S S S S S S S S S S  
---------------------------------|----------------------------------|
-------7---7-7---7-7---7-7---7-7-|----7-7---7-7---7-7---7-7---7-7---|
--7--7---7-----7-----7-----7-----|--7-----7-----7-----7-----7-----5-|
---------------------------------|----------------------------------|
---------------------------------|----------------------------------|
  E  S S S S S S S S S S S S S S    S S S S S S S S S S S S S S S S  
---------------------------------|----------------------------------|
---------------------------------|----------------------------------|
--5--5-0-5-0-0-5-0-0-5-0-0-5-0-0-|--5-0-0-5-0-0-5-0-0-5-0-0-5-0-0-3-|
---------------------------------|----------------------------------|
---------------------------------|----------------------------------|
  E  S S S S S S S S S S S S S S    S S S S S S S S S S S S S S S S  
---------------------------------|----------------------------------|
---------------------------------|----------------------------------|
--3--3-0-3-0-0-3-0-0-3-0-0-3-0-0-|--3-0-0-3-0-0-3-0-0-3-0-0-3-0-0---|
---------------------------------|--------------------------------3-|
---------------------------------|----------------------------------|
  E  S S S S S S S S S S S S S S    E  S S E  E  E  S S E  S S  
---------------------------------|-----------------------------|
---------------------------------|-----------------------------|
---------------------------------|-------------------------7-7-|
--3--3-0-3-0-0-3-0-0-3-0-0-3-0-0-|--3--3-3-3--2--3----0-0------|
---------------------------------|-----------------------------|
  E  S S S S S S S S S S S S S S    S S S S S S S S S S S S S S S S  
---------------------------------|----------------------------------|
-------7---7-7---7-7---7-7---7-7-|----7-7---7-7---7-7---7-7---7-7---|
--7--7---7-----7-----7-----7-----|--7-----7-----7-----7-----7-----5-|
---------------------------------|----------------------------------|
---------------------------------|----------------------------------|
  E  S S S S S S S S S S S S S S    S S S S S S S S S S S S S S S S  
---------------------------------|----------------------------------|
---------------------------------|----------------------------------|
--5--5-0-5-0-0-5-0-0-5-0-0-5-0-0-|--5-0-0-5-0-0-5-0-0-5-0-0-5-0-0-3-|
---------------------------------|----------------------------------|
---------------------------------|----------------------------------|
  E  S S S S S S S S S S S S S S    S S S S S S S S S S S S S S S S  
---------------------------------|----------------------------------|
---------------------------------|----------------------------------|
--3--3-0-3-0-0-3-0-0-3-0-0-3-0-0-|--3-0-0-3-0-0-3-0-0-3-0-0-3-0-0---|
---------------------------------|--------------------------------3-|
---------------------------------|----------------------------------|
  E  S S E  S S E  S S E  S S    S E.  E  S S S S S S S S S S  
------------------------------|-------------------------------|
---------5-------------5--5---|----5---5----------------------|
------------------------------|-----------------------------7-|
--3--3-3----0-0-3--3-3------3-|--L--------3-5-5-7-7-7-5-3-3---|
------------------------------|-------------------------------|
    E  S S S S S S S S S S S S S S    S S S S S S S S S S S S S S S S  
|----------------------------------|----------------------------------|
|*-------7---7-7---7-7---7-7---7-7-|----7-7---7-7---7-7---7-7---7-7---|
|---7--7---7-----7-----7-----7-----|--7-----7-----7-----7-----7-----5-|
|*---------------------------------|----------------------------------|
|----------------------------------|----------------------------------|
  E  S S S S S S S S S S S S S S    S S S S S S S S S S S S S S S S  
---------------------------------|----------------------------------|
---------------------------------|----------------------------------|
--5--5-0-5-0-0-5-0-0-5-0-0-5-0-0-|--5-0-0-5-0-0-5-0-0-5-0-0-5-0-0-3-|
---------------------------------|----------------------------------|
---------------------------------|----------------------------------|
  E  S S S S S S S S S S S S S S    S S S S S S S S S S S S S S S S  
---------------------------------|----------------------------------|
---------------------------------|----------------------------------|
--3--3-0-3-0-0-3-0-0-3-0-0-3-0-0-|--3-0-0-3-0-0-3-0-0-3-0-0-3-0-0---|
---------------------------------|--------------------------------3-|
---------------------------------|----------------------------------|
  E  S S S S S S S S S S S S S S    E  S S E  E  E  S S E  S S    
---------------------------------|------------------------------||
---------------------------------|-----------------------------*||
---------------------------------|-------------------------7-7--||
--3--3-0-3-0-0-3-0-0-3-0-0-3-0-0-|--3--3-3-3--2--3----0-0------*||
---------------------------------|------------------------------||
  E  S S E  E  E  S S E  S S   
-----------------------------||
-----------------------------||
-------------------------7-7-||
--3--3-3-3--2--3----0-0------||
-----------------------------||
Duration Legend
---------------
W - whole
H - half
Q - quarter
E - 8th
S - 16th
T - 32nd
X - 64th
. - note dotted
|-n-|  - n-tuplets
Tablature Legend
----------------
L - tied note
x - dead note
g - grace note
(n) - ghost note
> - accentuded note
NH - natural harmonic
AH - artificial harmonic
TH - tapped harmonic
SH - semi harmonic
PH - pitch harmonic
h - hammer on
p - pull off
b - bend
br - bendRelease
pb - preBend
pbr - preBendRelease
brb - bendReleaseBend
\n/ - tremolo bar dip
\n - tremolo bar dive
-/n - tremolo bar Release up
/n\ - tremolo bar inverted dip
/n - tremolo bar return
-\n - tremolo bar Release down
S - shift slide
s - legato slide
/ -  slide into from below or out of upwards
\ -  slide into from above or out of downwards
~ - vibrato
W - wide vibrato
tr - trill
TP - tremolo picking
T - tapping
S - slap
P - pop
< - fade in
^ - brush up
v - brush down
Composição: Bittencourt / Confessori / MariuttiColaboração e revisão:
  • marcos rolim

0 comentários

    mostrar mais comentários

    Conseguiu tocar?

    0tocaram0ainda não

    Grave um vídeo tocando Gentle Change e mande pra gente!

    00:00 / 00:00
    outros vídeos desta música
    repetirqualidadeautomática
    Outro vídeos desta música
      00:00 / 00:00
      automática
      OK