Cifra Club

Heroes Of Sand

Angra

Tab de baixo: Principal
exibições 6.521
shout loud..

g----------------------------------------       
d----------------------------------------
a----------------------------------------   2x  
e-0-1111-0-1111-0-1111-2-4444-2-4444-----
b-------------------------------------4--6

shadows...

g-------------------
d------------------
a-----------------
e------------0-1--
b-4--6--7--4------

refrao(all the heroes...)

g-------------------
d-------------------   3x
a-------------------
e-0----1----3----1--
b-------------------

base solo 1

g--3-----------------------------------------------------------------------------------
d--------------------------------------------------------------------------------------
a--------------------------------5-7-3b------------------------------------------------
e---1----------5-7-3b------5-7-8-----------0----1----0--------------0-0-0-0-0-1-1-1-1-1
b--------5-7-8----------5---------------------------------3-4-3--4---------------------


haunted by ...

g--------------------------------------------
d--------------------------------------------
a-----------------------------------------6--
e--0-0-0-0-0--1-1-1-1-1-1-----5-6-8-5-6-8----
b-------------------------------------------1

repete refrao e base solo
fim
b=bend

0 comentários

    mostrar mais comentários

    Conseguiu tocar?

    0tocaram0ainda não

    Grave um vídeo tocando Heroes Of Sand e mande pra gente!

    00:00 / 00:00
    outros vídeos desta música
    repetirqualidadeautomática
    Outro vídeos desta música
      00:00 / 00:00
      automática
      OK