Enviar cifraEntrar

Judgement Day

Angra

Tab de baixo: Principal
exibições 2.200
Afinação padrão - Baixo de 5 cordas


Intro

           Em
G-|------|---------------------|-----------------------------|-----------------------------|-
D-|------|---------------------|-----------------------------|-----------------------------|-
A-|------|---------------------|-----------------------------|-----------------------------|-
E-|-/12\-|-0--0--0---0-5-4-3-0-|-1p0-0-1p0-0-1p0---0-5-4-3-0-|-1p0-0-1p0-0-1p0---0-5-4-3-0-|-
B-|------|---------------------|-----------------------------|-----------------------------|-

    C  D   Em
G-|------|---------------------|-----------------------------|-----------------------------|-
D-|------|---------------------|-----------------------------|-----------------------------|-
A-|------|---------------------|-----------------------------|-----------------------------|-
E-|------|-0--0--0---0-5-4-3-0-|-1p0-0-1p0-0-1p0---0-5-4-3-0-|-1p0-0-1p0-0-1p0---0-5-4-3-0-|-
B-|-1--3-|---------------------|-----------------------------|-----------------------------|-

    G  F   Em
G-|------|---------------------|-----------------------------|-----------------------------|-
D-|------|---------------------|-----------------------------|-----------------------------|-
A-|------|---------------------|-----------------------------|-----------------------------|-
E-|-3--1-|-0--0--0---0-5-4-3-0-|-1p0-0-1p0-0-1p0---0-5-4-3-0-|-1p0-0-1p0-0-1p0---0-5-4-3-0-|-
B-|------|---------------------|-----------------------------|-----------------------------|-

    C  D            Em
G-|----------------|---------------------------------|---------------------------------|-
D-|----------------|---------------------------------|---------------------------------|-
A-|----------------|---------------------------------|---------------------------------|-
E-|----------------|-0-0-0-0-0-0-0-0-0-0-0-0-5-4-3-0-|-1p0-0-1p0-0-1p0-0-0-0-0-5-4-3-0-|-
B-|-1--3-3-3-3--3-3|---------------------------------|---------------------------------|-

                                      D9             B9     C9            D9
G-|---------------------------------|----------------------------------------------||-
D-|---------------------------------|-14----------14-----11/12---------12-------14-||-
A-|---------------------------------|----12----12------9-------10---10-------12----||-
E-|-1p0-0-1p0-0-1p0-0-0-0-0-5-4-3-0-|-------10-------7------------8-------10-------||-
B-|---------------------------------|----------------------------------------------||-

Solo de guitarra inicial

    Em                                C
G-|---------------------------------|---------------------------------|-
D-|---------------------------------|---------------------------------|-
A-|-7-7-7-7-7-7-7-7-7-7-7-7-5-5-5-5-|-3-3-3-3-3-3-3-3-3-3-3-3-2-2-2-2-|-
E-|---------------------------------|---------------------------------|-
B-|---------------------------------|---------------------------------|-

    A                                 F
G-|---------------------------------|---------------------------------|-
D-|---------------------------------|---------------------------------|-
A-|---------------------------------|---------------------------------|-
E-|-5-5-5-5-5-5-5-5-5-5-5-5-3-3-3-3-|-1-1-1-1-1-1-1-1-1-1-1-1-1-1-1-1-|-
B-|---------------------------------|---------------------------------|-

    Em                                C
G-|---------------------------------|---------------------------------|-
D-|---------------------------------|---------------------------------|-
A-|-7-7-7-7-7-7-7-7-7-7-7-7-5-5-5-5-|-3-3-3-3-3-3-3-3-3-3-3-3-3-3-3-3-|-
E-|---------------------------------|---------------------------------|-
B-|---------------------------------|---------------------------------|-

    C#m                               A
G-|---------------------------------|---------------------------------||-
D-|---------------------------------|---------------------------------||-
A-|-4-4-4-4-4-4-4-4-4-4-4-4-4-4-4-4-|-0-0-0-0-0-0-0-0-0-0-0-0-0-0-0-0-||-
E-|---------------------------------|---------------------------------||-
B-|---------------------------------|---------------------------------||-

Canto (primeira vez)

     Bm                          Em/B                        E
G-|---------------------------|---------------------------|---------------------------|-
D-|---------------------------|---------------------------|---------------------------|-
A-|-5-------------------------|-5-------------------------|-5-------------------------|-
E-|---7-5-7--5-7--7-7-7-7-7-7-|---7-5-7--5-7--7-7-7-7-7-7-|---7-5-7--5-7--7-7-7-7-7-7-|-
B-|---------------------------|---------------------------|---------------------------|-

    F#                          Bm                          A
G-|---------------------------|---------------------------|---------------------------|-
D-|---------------------------|---------------------------|---------------------------|-
A-|-5-------------------------|-5-------------------------|-3-------------------------|-
E-|---7-5-7--5-7--7-7-7-7-7-7-|---7-5-7--5-7--7-7-7-7-7-7-|---5-3-5--3-5--5-5-5-5-5-5-|-
B-|---------------------------|---------------------------|---------------------------|-

    E                           G                           Bm
G-|---------------------------|---------------------------|---------------------------|-
D-|---------------------------|---------------------------|---------------------------|-
A-|---------------------------|-2-------------------------|-5-------------------------|-
E-|-3-------------------------|---3-2-3--2-3--3-3-3-3-3-3-|---7-5-7--5-7--7-7-7-7-7-7-|-
B-|---5-3-5--3-5--5-5-5-5-5-5-|---------------------------|---------------------------|-


    Em/B                        E                           F#
G-|---------------------------|---------------------------|---------------------------|-
D-|---------------------------|---------------------------|---------------------------|-
A-|-5-------------------------|-5-------------------------|-5-------------------------|-
E-|---7-5-7--5-7--7-7-7-7-7-7-|---7-5-7--5-7--7-7-7-7-7-7-|---7-5-7--5-7--7-7-7-7-7-7-|-
B-|---------------------------|---------------------------|---------------------------|-

    Bm                          A
G-|---------------------------|---------------------------|-
D-|---------------------------|---------------------------|-
A-|-5-------------------------|-3-------------------------|-
E-|---7-5-7--5-7--7-7-7-7-7-7-|---5-3-5--3-5--5-5-5-5-5-5-|-
B-|---------------------------|---------------------------|-

    E                           G
G-|---------------------------|---------------------------||-
D-|---------------------------|---------------------------||-
A-|---------------------------|-2-------------------------||-
E-|-3-------------------------|---3-2-3--2-3--3-3-3-3-3-3-||-
B-|---5-3-5--3-5--5-5-5-5-5-5-|---------------------------||-

Ponte (primeira vez)

    D                            C                            G/B
G-|----------------------------|----------------------------|----------------------------|-
D-|----------------------------|----------------------------|----------------------------|-
A-|-------5------5-----5-----5-|-------5------5-----5-----5-|-------5------5-----5-----5-|-
E-|----------------------------|----------------------------|----------------------------|-
B-|-3-3-3----3-3----3-3---3-3--|-3-3-3----3-3----3-3---3-3--|-3-3-3----3-3----3-3---3-3--|-

    Bb                           B                          C
G-|----------------------------|--------------------------|--------------------------|-
D-|----------------------------|--------------------------|--------------------------|-
A-|-------5------5-----5-----5-|-2--2-2--2-2--2--2-2--2-2-|-3--3-3--3-3--3--3-3--3-3-|-
E-|----------------------------|--------------------------|--------------------------|-
B-|-3-3-3----3-3----3-3---3-3--|--------------------------|--------------------------|-

    G                             F             Em
G-|-----------------------------|------------||---------------------|-----------------------------|-
D-|-----------------------------|------------||---------------------|-----------------------------|-
A-|-10--10-10--10-10--10--10-10-|-8--10--12~-||---------------------|-----------------------------|-
E-|-----------------------------|------------||-0--0--0---0-5-4-3-0-|-1p0-0-1p0-0-1p0---0-5-4-3-0-|-
B-|-----------------------------|------------||---------------------|-----------------------------|-

                                          Canto (segunda vez)

                                          Bm                           Em/B
G-|-------------------------------------||---------------------------|---------------------------|-
D-|-------------------------------------||---------------------------|---------------------------|-
A-|-----------------------------5---7-5-||-5-------------------------|-5-------------------------|-
E-|-1p0-0-1p0-0-1p0-5-4-3-7-6-5---7-----||---7-5-7--5-7--7-7-7-7-7-7-|---7-5-7--5-7--7-7-7-7-7-7-|-
B-|-------------------------------------||---------------------------|---------------------------|-

  E                           F#                          Bm
G-|---------------------------|---------------------------|---------------------------|-
D-|---------------------------|---------------------------|---------------------------|-
A-|-5-------------------------|-5-------------------------|-5-------------------------|-
E-|---7-5-7--5-7--7-7-7-7-7-7-|---7-5-7--5-7--7-7-7-7-7-7-|---7-5-7--5-7--7-7-7-7-7-7-|-
B-|---------------------------|---------------------------|---------------------------|-


  A                           E                           G
G-|---------------------------|---------------------------|---------------------------||-
D-|---------------------------|---------------------------|---------------------------||-
A-|-3-------------------------|---------------------------|-2-------------------------||-
E-|---5-3-5--3-5--5-5-5-5-5-5-|-3-------------------------|---3-2-3--2-3--3-3-3-3-3-3-||-
B-|---------------------------|---5-3-5--3-5--5-5-5-5-5-5-|---------------------------||-

Ponte (segunda vez)

Nesta parte, utiliza-se as duas mãos para a execução. As notas entre "( )" são executadas 
com a mão direita (para destros) e deve-se mantê-las soando durante o compasso inteiro, as 
demais, com a mão esquerda utilizando ligados (hammer on e pull off).
OBS.: Não colocarei as notações desta parte para não dificultar a visualização.

    D                                           C
G-|--------------------------------------------|-------------------------------------------|-
D-|--12-0-10-12-0-10-12-0-12-0-10-12-0-10-12-0-|-12-0-10-12-0-10-12-0-12-0-10-12-0-10-12-0-|-
A-|--------------------------------------------|-------------------------------------------|-
E-|-(10)---------------------------------------|-(8)---------------------------------------|-
B-|--------------------------------------------|-------------------------------------------|-

   G/B                                     Bb
G-|---------------------------------------|---------------------------------------|-
D-|-12-0-9-12-0-9-12-0-12-0-9-12-0-9-12-0-|-12-0-8-12-0-8-12-0-12-0-8-12-0-8-12-0-|-
A-|---------------------------------------|---------------------------------------|-
E-|-(7)-----------------------------------|-(6)-----------------------------------|-
B-|---------------------------------------|---------------------------------------|-

   B                          C                          G                             A
G-|--------------------------|--------------------------|-----------------------------|----||-
D-|--------------------------|--------------------------|-----------------------------|----||-
A-|-2--2-2--2-2--2--2-2--2-2-|-3--3-3--3-3--3--3-3--3-3-|-10--10-10--10-10--10--10-10-|-12-||-
E-|--------------------------|--------------------------|-----------------------------|----||-
B-|--------------------------|--------------------------|-----------------------------|----||-

Pré-Refrão (primeira vez)

    D          Bb      F    C           Gm Am Bb C    D             Bb          F
G-|-----------------------|-------------------------|------------------------------|-
D-|-----------------------|-------------------------|------------------------------|-
A-|-5--5--5-5--5--5--5/8\-|-3--3--3-4-5----------3--|-5---5---5-5---5---5-5---5/8\-|-
E-|-----------------------|-------------3--5--6-----|------------------------------|-
B-|-----------------------|-------------------------|---3---3-----3---3-----3------|-

                                  Refrão (primeira vez)

    C                              Bb
G-|------------------------------|--------------------------------|-
D-|-------------------5------5---|--------------------------------|-
A-|-3--3--3h4h5----------------3-|-1--1-1-1-1-1-1-1-1-1-1-1-1-1-1-|-
E-|--------------3--3----3-3-----|--------------------------------|-
B-|------------------------------|--------------------------------|-

    F                                C
G-|--------------------------------|--------------------------------|-
D-|--------------------------------|--------------------------------|-
A-|--------------------------------|-3--3-3-3-3-3-3-3-3-3-3-3-3-3-3-|-
E-|-1--1-1-1-1-1-1-1-1-1-1-1-1-1-1-|--------------------------------|-
B-|--------------------------------|--------------------------------|-

    G                                               Eb
G-|-----------------------------------------------|--------------------------------|-
D-|-----------------------------------------------|--------------------------------|-
A-|-10--10-10-10-10-10-10-10-10-10-10-10-10-10-10-|-6--6-6-6-6-6-6-6-6-6-6-6-6-6-6-|-
E-|-----------------------------------------------|--------------------------------|-
B-|-----------------------------------------------|--------------------------------|-

    Bb                               Dsus4
G-|--------------------------------|---------------------------------|-
D-|--------------------------------|---------------------------------|-
A-|-1--1-1-1-1-1-1-1-1-1-1-1-1-1-1-|-5-5-5-5-5-5-5-5-7-7-7-7-7-7-7-7-|-
E-|--------------------------------|---------------------------------|-
B-|--------------------------------|---------------------------------|-

                                              As notas entre "( )" nos três compassos que 
                                              se seguem após o primeiro, devem manter-se 
                                              soando após a primeira batida em B. Isso se 
                                              repete em um total de quatro vezes.

    D                                           B                       B
G-|-----------------------------------------||--4--|-(4)-|-(4)-|-(4)-|--4--|-(4)-|-
D-|-----------------------------------------||--4--|-(4)-|-(4)-|-(4)-|--4--|-(4)-|-
A-|-8-8-8-8-8-8-8-8-10-10-10-10-12-12-12-12-||--2--|-(2)-|-(2)-|-(2)-|--2--|-(2)-|-
E-|-----------------------------------------||-----|-----|-----|-----|-----|-----|-
B-|-----------------------------------------||-----|-----|-----|-----|-----|-----|-

                 B                       B
G-|-(4)-|-(4)-|--4--|-(4)-|-(4)-|-(4)-|--4--|-(4)-|-(4)-|-(4)-||-
D-|-(4)-|-(4)-|--4--|-(4)-|-(4)-|-(4)-|--4--|-(4)-|-(4)-|-(4)-||-
A-|-(2)-|-(2)-|--2--|-(2)-|-(2)-|-(2)-|--2--|-(2)-|-(2)-|-(2)-||-
E-|-----|-----|-----|-----|-----|-----|-----|-----|-----|-----||-
B-|-----|-----|-----|-----|-----|-----|-----|-----|-----|-----||-

Esta é a parte mais interessante da música. Felipe Andreoli utiliza a técnica de Two Hands, 
mais exatamente o Duplo Domínio, que consiste em tocar a Melodia e o Baixo ao mesmo tempo. 
O "T" é o Tapping, que é executado com a mão direita (para destros) onde se faz a Melodia, e 
o Baixo é feito com a mão esquerda, digitando as notas.


     C#m                                           A
     T       T       T     T       T       T        T      T       T    T       T      T
G-||-13------13------13----13------13------13----|--9------9-------9----9-------9------9---|-
D-||-14------14------14----14------14------14----|-10-----10------10---10------10-----10---|-
A-||------11------11----11------11------11----11-|------7-------7----7-------7------7----7-|-
E-||----9-------9-------------9-------9----------|----5-------5------------5------5--------|-
B-||---------------------------------------------|-----------------------------------------|-

    C#m
    T       T       T     T       T       T
G-|-13------13------13----13------13------13----|-
D-|-14------14------14----14------14------14----|-
A-|------11------11----11------11------11----11-|-
E-|----9-------9-------------9-------9----------|-
B-|---------------------------------------------|-

    D
    T        T        T     T        T        T
G-|-14-------14-------14----14-------14-------14----|-
D-|-16-------16-------16----16-------16-------16----|-
A-|-------12-------12----12-------12-------12----12-|-
E-|----10-------10-------------10-------10----------|-
B-|-------------------------------------------------|-

     C#m                                           A
     T       T       T     T       T       T        T      T       T    T       T      T
G-|-13------13------13----13------13------13----|--9------9-------9----9-------9------9---|-
D-|-14------14------14----14------14------14----|-10-----10------10---10------10-----10---|-
A-|------11------11----11------11------11----11-|------7-------7----7-------7------7----7-|-
E-|----9-------9-------------9-------9----------|----5-------5------------5------5--------|-
B-|---------------------------------------------|-----------------------------------------|-

    C#m
    T       T       T     T       T       T
G-|-13------13------13----13------13------13----|-
D-|-14------14------14----14------14------14----|-
A-|------11------11----11------11------11----11-|-
E-|----9-------9-------------9-------9----------|-
B-|---------------------------------------------|-

    G#m
    T        T        T     T        T        T
G-|-19-------19-------19----18-------18-------18----||-
D-|-18----13-18----13-18-13-17----13-17----13-17-13-||-
A-|----11-------11-------------11-------11----------||-
E-|-------------------------------------------------||-
B-|-------------------------------------------------||-

Quando a guitarra entra...

     C#m                                           A
     T       T       T     T       T       T        T      T       T    T       T      T
G-|-13------13------13----13------13------13----|--9------9-------9----9-------9------9---|-
D-|-14------14------14----14------14------14----|-10-----10------10---10------10-----10---|-
A-|------11------11----11------11------11----11-|------7-------7----7-------7------7----7-|-
E-|----9-------9-------------9-------9----------|----5-------5------------5------5--------|-
B-|---------------------------------------------|-----------------------------------------|-

    C#m
    T       T       T     T       T       T
G-|-13------13------13----13------13------13----|-
D-|-14------14------14----14------14------14----|-
A-|------11------11----11------11------11----11-|-
E-|----9-------9-------------9-------9----------|-
B-|---------------------------------------------|-

    D
    T        T        T     T        T        T
G-|-14-------14-------14----14-------14-------14----|-
D-|-16-------16-------16----16-------16-------16----|-
A-|-------12-------12----12-------12-------12----12-|-
E-|----10-------10-------------10-------10----------|-
B-|-------------------------------------------------|-

     C#m                                           A
     T       T       T     T       T       T        T      T       T    T       T      T
G-||-13------13------13----13------13------13----|--9------9-------9----9-------9------9---|-
D-||-14------14------14----14------14------14----|-10-----10------10---10------10-----10---|-
A-||------11------11----11------11------11----11-|------7-------7----7-------7------7----7-|-
E-||----9-------9-------------9-------9----------|----5-------5------------5------5--------|-
B-||---------------------------------------------|-----------------------------------------|-

    F#m
    T        T        T T   T        T        T
G-|-18-------18-------18----18-------18-------18-|-
D-|-19-------19-------19----19-------19-------19-|-
A-|-------16-------16----16-------16-------16----|-
E-|----14-------14-------------14-------14-------|-
B-|----------------------------------------------|-

    D
    T        T        T     T        T        T
G-|-14-------14-------14----14-------14-------14----||-
D-|-16-------16-------16----16-------16-------16----||-
A-|-------12-------12----12-------12-------12----12-||-
E-|----10-------10-------------10-------10----------||-
B-|-------------------------------------------------||-

Solo

     D/F#                  G                     D/F#                  G
G-||-11--11--11--x---11--|-12--12--12--x---12--|-11--11--11--x---11--|-12--12--12--x---12--|-
D-||-12--12--12--x---12--|-12--12--12--x---12--|-12--12--12--x---12--|-12--12--12--x---12--|-
A-||-9---9---9---x---9---|-10--10--10--x---10--|-9---9---9---x---9---|-10--10--10--x---10--|-
E-||---------------------|---------------------|---------------------|---------------------|-
B-||---------------------|---------------------|---------------------|---------------------|-

     D/F#                  G                     D/F#                  G
G-|-11--11--11--x---11--|-12--12--12--x---12--|-11--11--11--x---11--|-12--12--12--x---12--||-
D-|-12--12--12--x---12--|-12--12--12--x---12--|-12--12--12--x---12--|-12--12--12--x---12--||-
A-|-9---9---9---x---9---|-10--10--10--x---10--|-9---9---9---x---9---|-10--10--10--x---10--||-
E-|---------------------|---------------------|---------------------|---------------------||-
B-|---------------------|---------------------|---------------------|---------------------||-

Nesta base, usa-se o mesmo método citado na segunda vez em que se executa a ponte.

    D                                           C
G-|--------------------------------------------|-------------------------------------------|-
D-|--12-0-10-12-0-10-12-0-12-0-10-12-0-10-12-0-|-12-0-10-12-0-10-12-0-12-0-10-12-0-10-12-0-|-
A-|--------------------------------------------|-------------------------------------------|-
E-|-(10)---------------------------------------|-(8)---------------------------------------|-
B-|--------------------------------------------|-------------------------------------------|-

   G/B                                     Bb
G-|---------------------------------------|---------------------------------------|-
D-|-12-0-9-12-0-9-12-0-12-0-9-12-0-9-12-0-|-12-0-8-12-0-8-12-0-12-0-8-12-0-8-12-0-|-
A-|---------------------------------------|---------------------------------------|-
E-|-(7)-----------------------------------|-(6)-----------------------------------|-
B-|---------------------------------------|---------------------------------------|-

    D                                            E
G-|--------------------------------------------|--------------------------------------------|-
D-|--12-0-10-12-0-10-12-0-12-0-10-12-0-10-12-0-|--14-0-12-14-0-12-14-0-14-0-12-14-0-12-14-0-|-
A-|--------------------------------------------|--------------------------------------------|-
E-|-(10)---------------------------------------|-(12)---------------------------------------|-
B-|--------------------------------------------|--------------------------------------------|-

    F                                            Bb
G-|--------------------------------------------|--15-0-14-15-0-14-15-0-15-0-14-15-0-14-15-0-|-
D-|--15-0-14-15-0-14-15-0-15-0-14-15-0-14-15-0-|--------------------------------------------|-
A-|--------------------------------------------|-(13)---------------------------------------|-
E-|-(13)---------------------------------------|--------------------------------------------|-
B-|--------------------------------------------|--------------------------------------------|-

     G                                            F
G-|--12-0-10-12-0-10-12-0-12-0-10-12-0-10-12-0-|--12-0-10-12-0-10-12-0-12-0-10-12-0-10-12-0-|-
D-|--------------------------------------------|--------------------------------------------|-
A-|-(10)----(10)----(10)-(10)----(10)----(10)--|-(8)------(8)-----(8)--(8)-----(8)-----(8)--|-
E-|--------------------------------------------|--------------------------------------------|-
B-|--------------------------------------------|--------------------------------------------|-

    C/E                                     Eb
G-|-12-0-9-12-0-9-12-0-12-0-9-12-0-9-12-0-|-12-0-8-12-0-8-12-0-12-0-8-12-0-8-12-0-||-
D-|---------------------------------------|---------------------------------------||-
A-|-(7)----(7)----(7)--(7)----(7)----(7)--|-(6)----(6)----(6)--(6)----(6)----(6)--||-
E-|---------------------------------------|---------------------------------------||-
B-|---------------------------------------|---------------------------------------||-

    D
       T  T     T  T     T  T     T  T     T  T     T  T    T   T     T  T
G-|----------14----------------14----------------14----------------14-------|-
D-|-------12----12----------12----12----------12----12----------12----12----|-
A-|----12----------12----12----------12----12----------12----12----------12-|-
E-|-10----------------10----------------10----------------10----------------|-
B-|-------------------------------------------------------------------------|-

    C
      T  T     T  T    T  T     T  T    T  T     T  T    T  T     T  T
G-|---------------------------------------------------------------------|-
D-|---12----10-12------12----10-12------12----10-12------12----10-12----|-
A-|------12-------12------12-------12------12-------12------12-------12-|-
E-|-8----------------8----------------8----------------8----------------|-
B-|---------------------------------------------------------------------|-

    G/B
      T  T    T  T    T  T     T  T    T  T     T  T    T  T     T  T
G-|--------------------------------------------------------------------|-
D-|---12----9-12------12-----9-12------12-----9-12------12-----9-12----|-
A-|------12------12------12-------12------12-------12------12-------12-|-
E-|-7---------------7----------------7----------------7----------------|-
B-|--------------------------------------------------------------------|-

    Bb
      T  T    T  T     T  T    T  T    T  T     T  T    T  T     T  T
G-|--------------------------------------------------------------------||-
D-|---12----8-12-------12----8-12------12-----8-12----9-12----10-12----||-
A-|------12------12-------12------12------12-------12------12-------12-||-
E-|-6----------------6---------------6---------------------------------||-
B-|--------------------------------------------------------------------||-

Pré-Refrão (segunda vez)

    D          Bb      F    C           Gm Am Bb C    D             Bb          F
G-|-----------------------|-------------------------|------------------------------|-
D-|-----------------------|-------------------------|------------------------------|-
A-|-5--5--5-5--5--5--5/8\-|-3--3--3-4-5----------3--|-5---5---5-5---5---5-5---5/8\-|-
E-|-----------------------|-------------3--5--6-----|------------------------------|-
B-|-----------------------|-------------------------|---3---3-----3---3-----3------|-

    C           Gm         C     D          Bb      F    C           Gm Am Bb C
G-|----------------------------|-----------------------|------------------------|-
D-|----------------------------|-----------------------|------------------------|-
A-|-3--3--3-4-5--------3h5-3~--|-5--5--5-5--5--5--5/8\-|-3--3--3-4-5----------3-|-
E-|-------------3--3h5---------|-----------------------|-------------3--5--6----|-
B-|----------------------------|-----------------------|------------------------|-

    D             Bb          F
G-|------------------------------|-----------------------------||-
D-|------------------------------|------------------5------5-3-||-
A-|-5---5---5-5---5---5-5---5/8\-|-3--3--3-4-5-----------------||-
E-|------------------------------|-------------3--3----3-3-----||-
B-|---3---3-----3---3-----3------|-----------------------------||-

Refrão (segunda vez)

    Bb                               F
G-|--------------------------------|--------------------------------|-
D-|--------------------------------|--------------------------------|-
A-|-1--1-1-1-1-1-1-1-1-1-1-1-1-1-1-|--------------------------------|-
E-|--------------------------------|-1--1-1-1-1-1-1-1-1-1-1-1-1-1-1-|-
B-|--------------------------------|--------------------------------|-

    C                                G
G-|--------------------------------|--------------------------------|-
D-|--------------------------------|--------------------------------|-
A-|-3--3-3-3-3-3-3-3-3-3-3-3-3-3-3-|--------------------------------|-
E-|--------------------------------|-3--3-3-3-3-3-3-3-3-3-3-3-3-3-3-|-
B-|--------------------------------|--------------------------------|-

    Bb                               F
G-|--------------------------------|--------------------------------|-
D-|--------------------------------|--------------------------------|-
A-|-1--1-1-1-1-1-1-1-1-1-1-1-1-1-1-|--------------------------------|-
E-|--------------------------------|-1--1-1-1-1-1-1-1-1-1-1-1-1-1-1-|-
B-|--------------------------------|--------------------------------|-

    C                                G
G-|--------------------------------|-----------------------------------------------|-
D-|--------------------------------|-----------------------------------------------|-
A-|-3--3-3-3-3-3-3-3-3-3-3-3-3-3-3-|-10--10-10-10-10-10-10-10-10-10-10-10-10-10-10-|-
E-|--------------------------------|-----------------------------------------------|-
B-|--------------------------------|-----------------------------------------------|-

    Eb                               Bb
G-|--------------------------------|--------------------------------|-
D-|--------------------------------|--------------------------------|-
A-|-6--6-6-6-6-6-6-6-6-6-6-6-6-6-6-|-1--1-1-1-1-1-1-1-1-1-1-1-1-1-1-|-
E-|--------------------------------|--------------------------------|-
B-|--------------------------------|--------------------------------|-

    Dsus4                             D
G-|---------------------------------|----------------------------------||-
D-|---------------------------------|----------------------------------||-
A-|-5-5-5-5-5-5-5-5-7-7-7-7-7-7-7-7-|-8-8-8-8-8-8-8-8-10-10-10-10-12/--||-
E-|---------------------------------|----------------------------------||-
B-|---------------------------------|----------------------------------||-

    Em
G-|---------------------|-----------------------------|-----------------------------|-
D-|---------------------|-----------------------------|-----------------------------|-
A-|---------------------|-----------------------------|-----------------------------|-
E-|-0--0--0---0-5-4-3-0-|-1p0-0-1p0-0-1p0---0-5-4-3-0-|-1p0-0-1p0-0-1p0---0-5-4-3-0-|-
B-|---------------------|-----------------------------|-----------------------------|-

    D9             B9     C9            D9         Em
G-|----------------------------------------------|---------------------|-
D-|-14----------14-----11/12---------12-------14-|---------------------|-
A-|----12----12------9-------10---10-------12----|---------------------|-
E-|-------10-------7------------8-------10-------|-0--0--0---0-5-4-3-0-|-
B-|----------------------------------------------|---------------------|-

G-|-----------------------------||  #####  ##  ##   ## 
D-|-----------------------------||  ##     ##  ### ###
A-|-----------------------------||  ###    ##  ## # ##
E-|-1p0-0-1p0-0-1p0---0-5-4-3-0-||  ##     ##  ##   ##
B-|-----------------------------||  ##     ##  ##   ##
  • 1
  • 2
  • 3
  • 4
  • 5
  • 6
  • 7
  • 8
  • 9
  • 10
  • 11
  • 12

    0 comentários

      mostrar mais comentários

      Conseguiu tocar?

      0tocaram0ainda não

      Grave um vídeo tocando Judgement Day e mande pra gente!

      00:00 / 00:00
      outros vídeos desta música
      repetirqualidadeautomática
      • automática
      Outro vídeos desta música
        00:00 / 00:00
        automática
        • automática
        Acordes para:violão e guitarra
        dificuldadeexibiçõescontribuições
        1 versão de Tab de baixoexibiçõescontribuições
        3 versões de Guitar Proformatodownloadscontribuição
        fecharplay/pause subir/descer velocidade
        fechar
        OK