Cifra Club

Pegasus Fantasy

Angra

Tab de baixo: Principal
exibições 2.748
G----------------------------------------------------------------------------------------------------------------------------------------------------------------------------
D-------------------------------------------------------------------------------------------------------------------------------1-1-1-1-1-1-1-1-----------------------
A-3-3-3-3-3-3-3-3-3-3-3-3-3-3-3-3----------------------------------------------------------------1-1-1-1-1-1-1-1------------------------------1-1-1-0-0-
E--------------------------------------------3-3-3-3-3-3-3-3-3-3-3-3-3-3-3-3---4-4-4-4-4-4-4-------------------------------------------3-3-3--------------

G--------------------------------------------------------------------------------------------------------------------------------------------------------------------------
D--------------------------------------------------------------------------------------------------------------------------------------------------------------------------
A-3-3-3-3-3-3-3-3-3-3-3-3-3-3-3-3-----------------------------------------------------------------1-1-1-1-1-1-1-1-3-3-3-3-3-3-3-3---3---1------------
E--------------------------------------------3-3-3-3-3-3-3-3-3-3-3-3-3-3-3-3-4-4-4-4-4-4-4-4-------------------------------------------------------4---3—

G-------------------------------------------------------------------------------------------------------------------------------------------------------------------------
D--------------------------------------------1-1-1---0-0-0------------------------------------------------------------------------------------0---------------------
A----------------------1-1-1-1-1-1-1-1----------------------3-3-3---1-1-1------------------------1-1-1-1-1-1-1-1-----------------1------------------------
E-4-4-4-4-4-4-4-4---------------------------------------------------------------4-4-4-4-4-4-4-4----------------------3-3-3-3-1-1---------------------------

    Saint Seya.                                                                                      Saint Seya

G-----------------------------------------------------------------------------------------------------------------------------------------------0-0-0-0-0-0-0-0--------  
D--------------------------------------------------------------------------------------------------------------------------1-1-1-1-1-1-1-1-----------------------------
A--3---3-3-3-3-3-3-3-3-3-3-3-----------------------------------------------1-1-1----1-1-1-1-1-1-1-1-1-1-1--------------------------------------------------
E------------------------------------4-4-4-4-4-4-4-4-4-4-4-4-4-4-4-4----------------------------------------------------------------------------------------------

  Saint Seya.                                                                                                       Saint Seya

G-------------------------------------------------------------------------------------------------------------------------------------------------- -----------------------
D--------------------------------------------------------------------------------------------------------------------------------------------------------------------------
A--3-3-3-------3-3-3-3-3-3-3-3-3-3-3------------------------------------------------1-1-1-----1-1-1-1-1-1-1-1-1-1-1--------------------------------------
E---------------------------------------------4-4-4-4-4-4-4-4-4-4-4-4-4-4-4-4------------------------------------------------------------------------------------

G--------------------------------------------------------------------------------------------------
D--------------------------------------------------------------------------------------------------
A--3-3-3-3-3-3-3-3----------------------1-1-1-1-1-1-1-1-1-1-1-1-1-1-1-1------------                        2X
E-----------------------4-4-4-4-4-4-4-4-------------------------------------------------------      
      

G--------------------------------------------------------------------------------------------------
D--------------------------------------------------------------------------------------------------
A--3-----------------------4-------------------------1------------------------------------------- 2 x                       
E--------------------------------------------------------------------------------------------------   

G--------------------------------------------------------------------------------------------------
D--------------------------------------------------------------------------------------------------
A--------------------------------------------------------------------------------------------------                        
E----------------8--8---8~-----------------------------------------------------------------------
Colaboração e revisão:
  • Allan Bastos

0 comentários

    mostrar mais comentários

    Conseguiu tocar?

    1tocaram0ainda não

    Grave um vídeo tocando Pegasus Fantasy e mande pra gente!

    00:00 / 00:00
    outros vídeos desta música
    repetirqualidadeautomática
    Outro vídeos desta música
      00:00 / 00:00
      automática
      OK