Notificações Amigos pendentes

      Angra

      Rebirth (Acústica)

      217.509 exibições
      Tom: C
      Legenda:
          = Slide Down
       < > = Harmônico Natural
      
      Intro.:
      Compasso 4/4 
      
           Am               G          E       F        G        Am             
      e|---------0---------------------------|---------------------------0---------|
      B|*------1---3--------------1-0--------|----------------0--------1-----1----*|
      G|-----2-----------2------0------------|-------2--0---0--------2-----2---2---|
      D|---------------0------0------------2-|-----3------0--------2---------------|
      A|*--0---------0-------------------2---|---3---------------0----------------*|
      e|--------------------3----------0-----|-1--------3--------------------------|
      
                                                                            
      
          Dm                                                     Am               
      e|---------1------0---1-----------0--|---------0-----1-----0-----------------|
      B|-------3---3----------3---3--------|*--3-------3-----3-----1----3-----1----|
      G|-----2-------2----------2---2------|-----2-------2-----------2----2-----2--|
      D|--0---------------------------0----|-------0------------------------2------|
      A|-----------------------------------|*--------------------------------------|
      e|-----------------------------------|---------------------------------------|
      
      
                                                 (Compasso 2/4)     
        ________                                  ________
      
       |1.                  Dm                   |2.   G               Fim da intro.
      e|----------------0---1-----------------0--|--------------------------3-----||
      B|---1-----1-------------3-----3----------*|-------------------3------------||
      G|-----2-----2--------------2-----2--------|------------4-------------------||
      D|-------2-----2---------------------0-----|-----5--------------------------||
      A|----------------------------------------*|--------------------------------||
      e|-----------------------------------------|--------------------------------||
      
      
      Compasso 4/4
      
           Am                                    Dm                               
      e|---------3-0---3-----------3-0---3----|----------5-----------------5-------|
      B|*------1-----1---1-------1-----1---1--|--------6-----6-----------6-----6--|
      G|-----4-----------------4--------------|------7-----7---7-------7-----7-----|
      D|--------------------------------------|----7-----------------7-------------|
      A|*--0-----------------0----------------|--5-----------------5---------------|
      e|--------------------------------------|------------------------------------|
      
       1. Cooling      breeze    from    a             summer        day
       2. Joyful      seagulls       roaming      on          the          shore 
                                                                                  
      
           G                                          Cadd9            
      e|-----------2------------------2----------|--------------------0------------|
      B|---------2------0-----------2------0-----|------------3---------------3----|
      G|-------0------0---0-------0------0---0---|--------0-------0-------0--------|
      D|-----0------------------0----------------|---------------------------------|
      A|-----------------------------------------|----3----------------------------|
      e|---3------------------3------------------|---------------------------------|
      
       1.  Hearing     echoes     from     your                 heart            
       2.  Not    a    single    note     would                       
      
        _______________________________
       |   Cadd9                       e|-------------------0-----------
                     sound 
      
      
           Am                                   D
      e|---------3-0---3----------3-0---3----|--------2-0---2----------2-0---2-----|
      B|-------1-----1---1------1-----1---1--|------3-----3---3------3-----3---3---|
      G|-----4----------------4--------------|----2----------------2---------------|
      D|-------------------------------------|--0----------------0-----------------|
      A|---0----------------0----------------|-------------------------------------|
      e|-------------------------------------|-------------------------------------|
      
       1.   Learning      how      to      recompose           the          words 
       2.   Raise     my     head after   I   dry             my             face 
      
      
           F                                    Am
      e|---------1-0---1----------1-0---1----|----------0----------------0---------|
      B|-------1-----1---1------1-----1---1--|--------0-----0----------0-----0----*|
      G|-----2----------------2--------------|------5-----5---5------5-----5---5---|
      D|-------------------------------------|----7----------------7---------------|
      A|-------------------------------------|--0----------------0----------------*|
      e|---1----------------1----------------|-------------------------------------|
      
       1;2.  Let        time         just                      fly             
                                                                         
      
           Am                                                    E                  
      e|-------0---0------------1---1--------|------0---0--------------------------|
      B|*------1---1---1--------3---3---1----|------1---1---3--------0---0--------*|
      G|-----2---2---2---2----2---2---2---2--|----2---2---2---2------1---1---1-----|
      D|-------------------------------------|---------------------2---2---2---2---|
      A|*--0----------------0----------------|--0---------------------------------*|
      e|-------------------------------------|-------------------0-----------------|
      
       1.    Recalling,       retreating          Returning,        retrieving 
       2.   A small talk     your missing        More clever       but older now 
      
      
                 F                                                  G
      e|---------------------------------------------------------------------------|
      B|--------------------1------------------------1-----------------------------|
      G|--------------------------------2------------------------------------------|
      D|---------------------------------------------------------------------------|
      A|---------------------------------------------------------------------------|
      e|---------1-----------------------------------------------------------------|
      
      
           Am                                                    E                   
      e|-------0---0------------1---1--------|------0---0--------------------------|
      B|-------1---1---1--------3---3---1----|------1---1---3--------0---0---------|
      G|-----2---2---2---2----2---2---2---2--|----2---2---2---2------1---1---1-----|
      D|-------------------------------------|---------------------2---2---2---2---|
      A|---0----------------0----------------|--0----------------------------------|
      e|-------------------------------------|-------------------0-----------------|
      
              A leader,         a learner           A lawful          beginner 
      
      
          Am                                            Dm      G              
      e|--------0-----0-------------------------------|----------------------------|
      B|--------1-----1-----1----------3--------3-----|-------------1--------3-----|
      G|-----2-----2-----2-----2----2-----2--2-----2--|----------2-----2--2-----2--|
      D|----------------------------------------------|----------------------------|
      A|--0-------------------------------------------|----------------------------|
      e|----------------------------------------------|----------------------------|
      
                 A lodger             of lunacy         So lucid in    a    jungle 
      
      
         C           E              F            G            Aadd9   Am      G
      e|--------------------------|-------------------------|----------------------|
      B|----1-----3-----1-----3---|----1-----3----1--0------|-1-------1------------|
      G|--2---2-2---2-2---2-2---2-|--2---2-2-------2--0--2--|-2-------2------------|
      D|--------------------------|----------------------2--|-2--------------------|
      A|--------------------------|-------------------------|-0--------------------|
      e|--------------------------|-------------------------|----------------------|
      
          A helper, a sinner        A scarecrow's agonizing smi___________le 
      
          F                 G  Am             G  
          Ride the winds of a brand new day 
          F                  G   Am     G
          High where mountain's stand 
          F             Em   Dm
          Found my hope and pride again 
             C          E
          Rebirth of a man 
      
      (repetir os dois primeiros compassos da introdução 2x)
                                                                             
                                        ________                              
      
          Am             Dm            |1.                Am                   G
      e|--------1-----0--1-----------0-|-------0-----1----0------------------------|
      B|*-----1---3--------3---3-------|-3-------3-----3----1----3---------6------*|
      G|----2-------2--------2---2-----|---2-------2----------2----2-----9---------|
      D|---------------------------0---|-----0-----------------------2-------------|
      A|*-0----------------------------|------------------------------------------*|
      A|-------------------------------|-------------------------------------------|
      
                Na na na . . .
        ________
      
       |2.                Am           G/D                Am                 G
      e|-------0-----1----0------------7--7--7--7--7--7-|-0-------0----------------|
      B|-3-------3-----3----1---3------8--8--8--8--8--8-|-1-----1-----1------------|
      G|---2-------2----------2---2----7--7--7--7--7--7-|-2---2-----2---2----------|
      D|-----0----------------------2--9--9--9--9--9--9-|---2----------------------|
      A|------------------------------------------------|--------------------------|
      e|------------------------------------------------|--------------------------|
      
      
          F                 G  Am             G  
          Ride the winds of a brand new day 
          F                  G   Am     G
          High where mountain's stand 
          F             Em   Dm
          Found my hope and pride again 
             C          
          Rebirth of a  
      
      
                      E
      e|---------------------------------------------------------------------------|
      B|-------------------------------------------------------6-------------------|
      G|----------------------------------------9----------------------------------|
      D|---------------------------------------------------------------------------|
      A|---------------------------------------------------------------------------|
      e|---------------------------------------------------------------------------|
      
                     man              
                                                                             N.H.
      
         Am               G          E       F           G        A             
      e|-------0---------------------------|-------------------------------0-<12>-||
      B|-----1---3--------------1-0--------|-------------------0-------{2}--------||
      G|---2-----------2------0------------|----------2--0---0-------2------------||
      D|-------------0------0------------2-|-------3-------0----------------------||
      A|-0---------0-------------------2---|----3----------------{0}--------------||
      e|------------------3----------0-----|-1-----------3------------------------||
      
                                             Time        to          fly . . .
      
      Obs: Caso esteja tocando com banda ignore as notas entre as chaves, pois são 
      notas do Contra-baixo.
      
      Acordes:
      
      Am      >X02210   ou   577555
      Aadd9   >X02200        
      A       >X02220    
      C       >X32010   ou   X35553
      Cadd9   >X32030
      Dm      >XX0231   ou   X57765
      D       >XX0232
      E       >022100
      E7      >022130
      Em      >022000     
      F       >133211     
      G       >320003   ou   355433
      G/D     >XX9787

      Comentários 6

      140 .
      • Alessandro Alessandro: Em 19/10/2014 01:17

        Show!!! Alem da musica ser muito boa, com a explicação do Rafael dessa maneira ficou bem mais fácil. Parabéns ao cifra clube .

      • mateus.veronez.94 mateus.veronez.94: Em 01/06/2014 22:18

        muito massa !!!

      • otuosxd otuosxd: Em 23/06/2012 23:12

        precisa sim !
        akela merda nao ensina direito.
        mil vzs cifra club

        • caiorobertobr caiorobertobr: Em 19/12/2013 23:05

          Vc q é tapado q é tudo de mao beijada, vai aprender a tocar mlk

      • k.metalfan k.metalfan: Em 15/04/2011 20:22

        Legal!!!

      • PirataDaNet PirataDaNet: Em 05/03/2011 11:11

        foda

      140 cancelar

      conseguiu tocar?

      • •••
      Alexander Carimarcony217 visualizações
        ver covers de outras músicas »
        0:00 / 0:00

        Capítulos

          2 versões de violão dificuldade exibições contribuição e correção
          2 versões de guitarra dificuldade exibições contribuição e correção
          2 versões de cavaco dificuldade exibições contribuição e correção
          2 versões de teclado dificuldade exibições contribuição e correção
          1 versão de Guitar Proformatodownloadscontribuição
          play/pausefechar subir/descer velocidade
          6ª corda E5ª corda A4ª corda D3ª corda G2ª corda B1ª corda E
            acordes
            publicidade
            fechar
            ok