Cifra Club

Aprenda

Rebirth

Angra

Cifra: Versão 6 (violão e guitarra)
tom: C
    Am               Am7/G      Em     F          G      Am
e|--------0-----------------------------------------------------0--------|  R
B|------1---3--------------1-0--------------------------------1-----1----| E
G|----2------------2-----0-------------------2-0------------2-----2---2--|  P
D|---------------0-----2------------2------3----------5---2--------------|  E
A|--0-----------------------------2------3----------5---0----------------|/ T
E|-------------2-----3----------0------1----------3----------------------|  E

   Dm                                C              G/B
e|-------1-----0----------0------1---0-----------------2-----|
B|-----3-----3-----3--------3--------------3---1------2------|
G|---2-----2-----2---2--------2----2---0----0---0---0--------|  fim da primeira
D|-0---------0---------0-----------------2---2---------------|       parte
A|-----------------------------------3---3--------2----------|
E|-----------------------------------------------------------|

2ª parte (toque duas vezes):

  (início da voz)

         A7/9 (?)               Dm7
e|-------3-0---3------3-0---3------------5-----------------5---------|
B|-----1-----1--1----1----1---1-------6-------6----------6------6----|
G|---4--------------4---------------5-------5---5------5------5---5--|
D|--------------------------------7------------------7---------------|
A|-0--------------0-------------5------------------------------------|
E|---------------------------------------8---------7-------5---------|

   G/9
e|---------3----------------3-----------------0----------------0-------|
B|-------0---0---0--------0---0---0---------3------3---------3-----3---|
G|-----2-------2--------2-------2---------0------0---0-----1-----1---1-|
D|---0----------------0-----------------2----------------2-------------|
A|------------------------------------3-------2----------------2-------|
E|-3----------------3----------------------------------4---------------|

e|-------3-0---3---------3-0----3-----------0------------0-------------1-0-|
B|-----1-----1---1-----1------1---1-------7------7------7-----7------1-----|
G|---4----------------4-----------------5------5---5---5----5---5---2------|
D|------------------------------------7---------------7--------------------|
A|-0----------------0---------------5----------------5---------------------|
E|------------------------------------------8------------5--------1--------|

e|---1---------1-0----1-----------0-----------------0---------------0-------|
B|-1---1-----1------1---1-----1-0---1---1------(10)---1---1----(10)---1---1-|
G|---------2----------------2---------4------2----------4-----2---------4---|
D|--------------------------------------------------------------------------|
A|------------------------0---------------0-----------------0---------------|
E|-------1-------3----------------------------------------------------------|

(repete segunda parte)

e|--------------------------------------------------------------------| R
B|-----1---1---0-------3---3---1-------1---1---0-------1---1---2------| E
G|---2---2---2---2---2---2---2---2---2---2---2---2---2---2---2---2----| P
D|--------------------------------------------------------------------| E
A|-0--------------0----------------0---------------0----------------0-| T
E|--------------------------------------------------------------------| E

(fim da introdução)

   (ver introdução "início da voz")
Am                      Dm
Cooling breeze from a summer day
G                        C G/B
Hearing echoes from your heart
Am                          D D4
Learning how to recompose the words
F             Am
Let time just fly

Joyfull sea-gulls roaming on the shore
Not a single note will sound
Raise my head after I dry my face
Let time just fly
Am    Dm           Am
Recalling, retreating
       Dm          Am
Returning, retreaving
           Dm        Am
A small talk your missing

(FIM DA INTRODUÇÃO)   
           Dm              F    G
More clever but older now  

(início instrumental) 

 A           A
A leader, a learner
 A/G      E 
A lawful beginer
 A           A
A lodger of lunacy
 D        G  
So lucid in a jungle
 C         E
A helper, a sinner
 F             G          A
A scarecroow's agonyzing smile
 F             F#
Oh! Minutes go round and round
          C#
Inside my head
 D                D#
Oh! My chest will now explode 
        B
Falling into pieces          2X
 E                 A       (C# B)     E F  E F  
Rain breaks on the ground-blood!


C#  B C#   C# B C#    E F  E F 
One minute forever

C# B  C#  C# B  C#    E F  E F
A  sinner regreting

 A               G     F   G A  G
My vulgar misery ends

F              G    A              G
Ride the winds of a brand new day
F                  G   A     G
High where mountain's stand
F             E   D 
Found my hope and pride again
                           2X
  C         D E    (A G/F# G E F G A)
Rebirth of a man   (I N T R O D U Ç Ã O)

                                  3X
BASE do SOLO: 1ª parte: (B  G F# E  G A D B)    B G F# E  G F# G 

                               2X
              2ª parte: (A G/F# G E F G A)   

              3ª parte:   D C F E D C G  A

TAB do 1° solo (Kiko Loureiro)

|------------------------|
|-10r-----10b--------10--|
|------------------------|
|------------------------|
|------------------------|
|------------------------|
                                                                         
-----------12-14-15-14-12----------17b-------|------19-17-19--------17b-|
--12-14-15----------------15-14-12-----------|--------------------------|
---------------------------------------------|--------------------------|
---------------------------------------------|--------------------------|
---------------------------------------------|--------------------------|
---------------------------------------------|--------------------------|
                                             
--------14h15h14-------14-------------|------------------------------|
-----------------17h15----17h14-15h14-|--------14--------------------|
--------------------------------------|--16h14----14-16----------16--|
--------------------------------------|------------------------------|
--------------------------------------|------------------------------|
--------------------------------------|------------------------------|
                                                   
--19----17/19/17----------------------------------|
--------------------19----17/19/17----------------|
-----16----------16----16----------16-19-16-18/19/|
--------------------------------------------------|
--------------------------------------------------|
--------------------------------------------------|
                                 
--------------------------------|
--------------------------------|
--18/18-18/19/18r--18-16--------|
--------------------------------|
--------------------------------|
--------------------------------|
                                    
--------------------------------------------------|
--------------------------------------------------|
--------------------------------11h12h11----------|
--------12-16-------12-16-12-16----------16h12h16-|
--12-14-------12-14-------------------------------|
--------------------------------------------------|
                                                   
--------------------------------------------------|
--------------12-------14h10----15h12-14h12-------|
--12h14h12-------14h12-------12-------------14-13-|
-----------16-------------------------------------|
--------------------------------------------------|
--------------------------------------------------|
                                                                                
-------------------------------------12-11-10-9-|--12b-----12h10---------14-14-|
--15-14-13-12-------------12-11-10-8------------|----------------12------------|
--------------14-13-12-11-----------------------|------------------------------|
------------------------------------------------|------------------------------|
------------------------------------------------|------------------------------|
------------------------------------------------|------------------------------|
                                                                         
--14/10-10-10-10/12-12-12-12/7-7-7-7/10-10--|--9-----10-9-7-9------0-10-|
--------------------------------------------|---------------------------|
--------------------------------------------|---------------------------|
--------------------------------------------|---------------------------|
--------------------------------------------|---------------------------|
--------------------------------------------|---------------------------|
                                                   
--14-15-14-10-14h10-------------------------------|
--------------------14-15-14-10-14h10-------------|
--------------------------------------14-16-14-11-|
--------------------------------------------------|
--------------------------------------------------|
--------------------------------------------------|
                              
----------------------------------------------|
----------------------------------------------|
--12------11-12-12-11-------------------------|
----------------------14-12-11----------------|
-------------------------------14-12-10-14/---|
----------------------------------------------|
                                                                              
--------------------------17--19--21--22--21--22--|
----------------------17--------------------------|
----------16--18--19------------------------------|
------16------------------------------------------|
--17----------------------------------------------|
--------------------------------------------------|

Tab da 3ªparte do solo:

e||-------------------|-------17---19b20-19b--17-17-19-19-15-15~-|
B||--15b-15~-15b------|--15/17--17-------------------------------|
G||--------------14~~-|------------------------------------------|
D||-------------------|------------------------------------------|
A||-------------------|------------------------------------------|
E||-------------------|------------------------------------------|

e||--20--17h19p17----17---------|
B||---------------20----20b-20b-|
G||-----------------------------|
D||-----------------------------|
A||-----------------------------|
E||-----------------------------|

e||-10-12-13-12p10-----------------------------------------------------------------|
B||----------------13-12p10----10-13-12p10----10-----------------------------------|
G||-------------------------12-------------12----12-10-9-12-10p9----10p9-----------|
D||--------------------------------------------------------------12------12-10-----|
A||----------------------------------------------------------------------------9~~-|
E||--------------------------------------------------------------------------------|

e||------------------------------------|--------------------------------------|
B||------------------------------------|--13/15-15~---------------------------|
G||--7/12-1210-109-97-7/9-95--5~~~-|------------15-14-12h14p12--9h10-10~~-|
D||------------------------------------|--------------------------------------|
A||------------------------------------|--------------------------------------|
E||------------------------------------|--------------------------------------|

e||--------------------------------|------------------------15----|
B||--------------------------------|---10-----12-----13-----18b20-|
G||-7h9p75-4-5p4------------------|---12b14--14b16--15b17--------|
D||---------------5----------------|------------------------------|
A||-----------------7-5h7-52-2~~~-|------------------------------|
E||--------------------------------|------------------------------|

 G      F              G    A              G
(And I) ride the winds of a brand new day
F                  G   A     G
High where mountain's stand
F             E   D 
Found my hope and pride again
 C         D E    
Rebirth of a man        (INTRODUÇÃO)    Time to fly...
Composição de Pedro Henrique Loureiro / Rafael Bittencourt
Colaboração e revisão:
  • JORGE ALVES
1.926 exibições
    • ½ Tom
    • A
    • Bb
    • B
    • C
    • Db
    • D
    • Eb
    • E
    • F
    • F#
    • G
    • Ab
  • Adicionar à lista

    0 comentários

    Ver todos os comentários
    00:00 / 00:00
    outros vídeos desta música
    repetir qualidade Automático
    Outros vídeos desta música
    00:00 / 00:00
    Automático
    Capítulos
    • Tocando a música
    • Dicas iniciais
    • Acordes Introdução
    • Tocando Introdução
    • Introdução - Parte 1 de 5
    • Introdução - Parte 2 de 5
    • Introdução - Parte 3 de 5
    • Introdução - Parte 4 de 5
    • Introdução - Parte 5 de 5
    • Acordes Primeira Parte
    • Tocando Primeira Parte
    • Primeira Parte - Parte 1 de 7
    • Primeira Parte - Parte 2 de 7
    • Primeira Parte - Parte 3 de 7
    • Primeira Parte - Parte 4 de 7
    • Primeira Parte - Parte 5 de 7
    • Primeira Parte - Parte 6 de 7
    • Primeira Parte - Parte 7 de 7
    • Acordes Segunda Parte (Primeira Estrofe)
    • Tocando Segunda Parte (Primeira Estrofe)
    • Segunda Parte (Primeira Estrofe) - 1 de 3
    • Segunda Parte (Primeira Estrofe) - 2 de 3
    • Segunda Parte (Primeira Estrofe) - 3 de 3
    • Acordes Segunda Parte (Segunda Estrofe)
    • Tocando Segunda Parte ( Segunda Estrofe)
    • Segunda Parte ( Segunda Estrofe) - 1 de 7
    • Segunda Parte ( Segunda Estrofe) - 2 de 7
    • Segunda Parte ( Segunda Estrofe) - 3 de 7
    • Segunda Parte ( Segunda Estrofe) - 4 de 7
    • Segunda Parte ( Segunda Estrofe) - 5 de 7
    • Segunda Parte ( Segunda Estrofe) - 6 de 7
    • Segunda Parte ( Segunda Estrofe) - 7 de 7
    • Acordes Terceira Parte
    • Tocando Terceira Parte
    • Terceira Parte - Parte 1 de 8
    • Terceira Parte - Parte 2 de 8
    • Terceira Parte - Parte 3 de 8
    • Terceira Parte - Parte 4 de 8
    • Terceira Parte - Parte 5 de 8
    • Terceira Parte - Parte 6 de 8
    • Terceira Parte - Parte 7 de 8
    • Terceira Parte - Parte 8 de 8
    • Acordes Quarta Parte
    • Tocando Quarta Parte
    • Quarta Parte - Parte 1 de 3
    • Quarta Parte - Parte 2 de 3
    • Quarta Parte - Parte 3 de 3
    • Ritmo Quarta Parte
    • Acordes Refrão
    • Tocando Refrão
    • Ritmo Refrão
    • Dicas Finais
    • Tocando Refrão
    • Tocando Dedilhado Final
    • Final - Parte 1 de 2
    • Final - Parte 2 de 2
    • Encerramento

    Cifra Club Pro

    Aproveite o Cifra Club com benefícios exclusivos e sem anúncios
    Cifra Club Pro
    Aproveite o Cifra Club com benefícios exclusivos e sem anúncios
    OK