Cifra Club

Aprenda

Running Alone (versão 2)

Angra

Cifra: Principal (violão e guitarra)
Tom: A
Obs.: Tai galera mas uma musica do cd rebirth essa musica vai exigir
      um pouco de estudo de vcs.treinem bastante e lembre-se usa
      sempre o metronomo no andamento lento e depois aumentando
      devagar, espero que gostem da trancriçao que foi complicada pra
      escrever , bons estudos ate proxima!

                                                              
E||---------------------|--------------------|--------------------|
B||---------------------|--------------------|--------------------|
G||*--------------------|--------------------|--------------------|
D||*--3-----------------|-----------8--------|--5-----------------|
A||---1--------3--------|--5--------6--------|--3--------5--------|
E||------------1--------|--3-----------------|-----------3--------|


                                                               
--------------------|--------------------|--------------------|
--------------------|--------------------|--------------------|
--------------------|--------------------|--------------------|
--7-----------------|--8--------5--------|-----------3--------|
--5--------8--------|--6--------3--------|--5--------1--------|
-----------6--------|--------------------|--3-----------------|


                                                                                
-------------------|-------------------||-------------------|------------------|
-------------------|-------------------||-------------------|------------------|
-------------------|------------------*||-------------------|------------------|
-------------------|------------------*||-------------------|------------------|
--3----------------|-------------------||--3----------------|------------------|
--1----------------|-------------------||--1----------------|------------------|




    kiko      Dobra de guitarras                                                         
E||---------------------|--------------------|--------------------|
B||---------------------|--------------------|--------------------|
G||*-----------5--------|--7-----------------|--8--------7--------|
D||*--8-----------------|-----------8--------|--------------------|
A||---------------------|--------------------|--------------------|
E||---------------------|--------------------|--------------------|


                                                               
--------------------|--------------------|--------------------|
--------------------|--------------------|--------------------|
-----------7--------|-----------8--------|--7-----------------|
--7-----------------|--8-----------------|-----------8--------|
--------------------|--------------------|--------------------|
--------------------|--------------------|--------------------|


                                                                                
-------------------|-------------------||-------------------|------------------|
-------------------|-------------------||--6----------------|------------------|
--5----------------|------------------*||-------------------|------------------|
-------------------|------------------*||-------------------|------------------|
-------------------|-------------------||-------------------|------------------|
-------------------|-------------------||-------------------|------------------|


                                                                           
------------------------|------------------------|------------------------|
--11--------------------|------------11----15----|--13------10------------|
----------12------------|----12------------------|------------------11----|
------------------12----|------------------------|------------------------|
------------------------|------------------------|------------------------|
------------------------|------------------------|------------------------|


                                                                       
--14----------------|--11--------------------|------------11----15----|
--------------------|----------13------------|----13------------------|
--------------------|------------------12----|------------------------|
--------------------|------------------------|------------------------|
--------------------|------------------------|------------------------|
--------------------|------------------------|------------------------|


                                              
--14--------------------|--17----------------|
----------15------------|--------------------|
------------------14----|--------------------|
------------------------|--------------------|
------------------------|--------------------|
------------------------|--------------------|


                                                   
--13-12-13-10----------------------10-13-12-13-10-|
--------------11----------------11----------------|
-----------------10----------10-------------------|
--------------------12-10-12----------------------|
--------------------------------------------------|
--------------------------------------------------|


                                                   
-----------------------10-13-10-------12-10-------|
--11----------------11----------11----------11----|
-----10----------10----------------10----------10-|
--------12-10-12----------------------------------|
--------------------------------------------------|
--------------------------------------------------|


                                             
--13-12-13-8-------------------8-13-12-13-8-|
-------------10-8---------8-10--------------|
------------------10-9-10-------------------|
--------------------------------------------|
--------------------------------------------|
--------------------------------------------|


                                           
--------------------8-12-8------13-8------|
--10-8---------8-10--------10-8------10-8-|
-------10-9-10----------------------------|
------------------------------------------|
------------------------------------------|
------------------------------------------|


                                                   
--15-14-15-10----------10-15-14-15-10----------10-|
--------------11----11----------------11----11----|
-----------------12----------------------12-------|
--------------------------------------------------|
--------------------------------------------------|
--------------------------------------------------|


                                                                            
--15-14-13-12-11----------10----------------------|------------------------|
-----------------14-13-12----14-13-12-11-14-13-11-|--10------11------15----|
--------------------------------------------------|------------------------|
--------------------------------------------------|------------------------|
--------------------------------------------------|------------------------|
--------------------------------------------------|------------------------|

rafael
                                                                           
--10--------------------|------------10----15----|--14--------------------|
----------11------------|----11------------------|----------15------------|
------------------12----|------------------------|------------------14----|
------------------------|------------------------|------------------------|
------------------------|------------------------|------------------------|
------------------------|------------------------|------------------------|


                                                                       
--17----------------|--15--------------------|------------15----18----|
--------------------|----------16------------|----16------------------|
--------------------|------------------17----|------------------------|
--------------------|------------------------|------------------------|
--------------------|------------------------|------------------------|
--------------------|------------------------|------------------------|


                                              
--17--------------------|--22----------------|
----------19------------|--------------------|
------------------19----|--------------------|
------------------------|--------------------|
------------------------|--------------------|
------------------------|--------------------|


                                                   
--18-17-18-13----------------------13-18-17-18-13-|
--------------15----------------15----------------|
-----------------15----------15-------------------|
--------------------15-14-15----------------------|
--------------------------------------------------|
--------------------------------------------------|


                                                   
-----------------------13-18-13-------17-13-------|
--15----------------15----------15----------15----|
-----15----------15----------------14----------15-|
--------15-14-15----------------------------------|
--------------------------------------------------|
--------------------------------------------------|


                                                   
--17-15-17-13----------------------13-17-15-17-13-|
--------------13----------------13----------------|
-----------------15-14-12-14-15-------------------|
--------------------------------------------------|
--------------------------------------------------|
--------------------------------------------------|


                                                   
-----------------------13-17-13-------15-13-------|
--13----------------13----------13----------13----|
-----15-14-12-14-15----------------15----------15-|
--------------------------------------------------|
--------------------------------------------------|
--------------------------------------------------|


                                                   
--18-17-18-15----------15-18-17-18-15----------15-|
--------------15----15----------------15----15----|
-----------------15----------------------15-------|
--------------------------------------------------|
--------------------------------------------------|
--------------------------------------------------|


                                                                            
--18-17-16-15-14----------15----------------------|------------------------|
-----------------18-17-16----19-18-17-16-19-18-16-|--13------15------18----|
--------------------------------------------------|------------------------|
--------------------------------------------------|------------------------|
--------------------------------------------------|------------------------|
--------------------------------------------------|------------------------|

Ate aqui
                                                         
------------------------|-------------------------------|
--17------18------20----|--20b--------------------------|
------------------------|-------------------------------|
------------------------|--7-----------7----------------|
------------------------|--5---5-5-5-5-5----5-5-5-5-5-5-|
------------------------|-------------------------------|


                                                            
---------------------------|-------------------------------|
---------------------------|-------------------------------|
---------------------------|-------------------------------|
--9----------10------------|--7----------7--5--------------|
--7--7-7-7-7-8-------10----|--5--5-5-5-5-5--3--3-3-3-3-3-3-|
---------------------8-----|-------------------------------|


                                                         
-------------------------|------------------------------|
-------------------------|------------------------------|
-------------------------|------------------------------|
-------------------------|--7----------7----------------|
--5----------3------5----|--5--5-5-5-5-5----5-5-5-5-5-5-|
--3--3-3-3-3-1------3----|------------------------------|


                                                             
----------------------------|-------------------------------|
----------------------------|-------------------------------|
----------------------------|-------------------------------|
--10----------10------------|--7----------7--5--------------|
--7---7-7-7-7-8-------10----|--5--5-5-5-5-5--3--3-3-3-3-3-3-|
----------------------8-----|-------------------------------|


                                                     
-------------------||-------------------------------|
-------------------||-------------------------------|
-------------------||*------------------------------|
-------------------||*--7----------7----------------|
--5----------------||---5--5-5-5-5-5----5-5-5-5-5-5-|
--3----------------||-------------------------------|


                                                             
----------------------------|-------------------------------|
----------------------------|-------------------------------|
----------------------------|-------------------------------|
--10----------10------------|--7----------7--5--------------|
--7---7-7-7-7-8-------10----|--5--5-5-5-5-5--3--3-3-3-3-3-3-|
----------------------8-----|-------------------------------|


                                                 
--------------------------||--------------------|
--------------------------||--------------------|
-------------------------*||--------------------|
-------------------------*||--3-----------------|
--5----------3------5-----||--1--------3--------|
--3--3-3-3-3-1------3-----||-----------1--------|


                                                             
--------------------------------------|---------------------|
--------------------------------------|---------------------|
--------------------------------------|---------------------|
--------------------------------------|---------------------|
--------------------------------------|--5---5---5----------|
--3--3--3--3--3--3--3--3--3--3--3--3--|--3---3---3----------|


                                                              
------------------------------|------------------------------|
------------------------------|------------------------------|
------------------------------|------------------------------|
--7----------7--7----------7--|--7----------7------7------7--|
--5--5-5-5-5-5--5--5-5-5-5-5--|--5--5-5-5-5-5--5-5-5--5-5-5--|
------------------------------|------------------------------|


                                                              
------------------------------|------------------------------|
------------------------------|------------------------------|
------------------------------|------------------------------|
--5----------5--5----------5--|--2----------5------5------5--|
--3--3-3-3-3-3--3--3-3-3-3-3--|--0--0-0-0-0-3--0-0-3--0-0-3--|
------------------------------|------------------------------|


                                                              
------------------------------|------------------------------|
------------------------------|------------------------------|
------------------------------|------------------------------|
--7----------7--7----------7--|--7----------7------7------7--|
--5--5-5-5-5-5--5--5-5-5-5-5--|--5--5-5-5-5-5--5-5-5--5-5-5--|
------------------------------|------------------------------|


                                                              
------------------------------|------------------------------|
------------------------------|------------------------------|
------------------------------|------------------------------|
--5----------5--5----------5--|------------------------------|
--3--3-3-3-3-3--3--3-3-3-3-3--|--3----------3------3------3--|
------------------------------|--1--1-1-1-1-1--1-1-1--1-1-1--|


                                                              
------------------------------|------------------------------|
------------------------------|------------------------------|
------------------------------|------------------------------|
------------------------------|------------------------------|
--5----------5--5----------7--|--8----------8------8------8--|
--3--3-3-3-3-3--3--3-3-3-3-5--|--6--6-6-6-6-6--6-6-6--6-6-6--|


                                                            
------------------------------|----------------------------|
------------------------------|----------------------------|
------------------------------|----------------------------|
------------------------------|--5----------5--------------|
--3----------3--3----------3--|--3--3-3-3-3-3--------------|
--1--1-1-1-1-1--1--1-1-1-1-1--|----------------0--1--0--1--|


                                                              
------------------------------|------------------------------|
------------------------------|------------------------------|
------------------------------|------------------------------|
------------------------------|------------------------------|
--5----------5--5----------7--|--8----------8------8------8--|
--3--3-3-3-3-3--3--3-3-3-3-5--|--6--6-6-6-6-6--6-6-6--6-6-6--|


                                                               
------------------------------|-------------------------------|
------------------------------|-------------------------------|
------------------------------|-------------------------------|
------------------------------|--8----------8--7--------------|
--3----------3--3----------3--|--6--6-6-6-6-6--5--5-5-5-5-5-5-|
--1--1-1-1-1-1--1--1-1-1-1-1--|-------------------------------|


     refrao                                                                 
----------------------------------|----------------------------------|
----------------------------------|----------------------------------|
----------------------------------|----------------------------------|
----------------------------------|----------------------------------|
----------------------------------|--6-6-6-6-6-6-6-6-6-6-6-6-6-6-6-6-|
--3-3-3-3-3-3-3-3-3-3-3-3-3-3-3-3-|----------------------------------|


                                                                      
----------------------------------|----------------------------------|
----------------------------------|----------------------------------|
----------------------------------|----------------------------------|
----------------------------------|----------------------------------|
----------------------------------|----------------------------------|
--6-6-6-6-6-6-6-6-6-6-6-6-6-6-6-6-|--1-1-1-1-1-1-1-1-1-1-1-1-1-1-1-1-|


                                                                      
----------------------------------|----------------------------------|
----------------------------------|----------------------------------|
----------------------------------|----------------------------------|
----------------------------------|----------------------------------|
----------------------------------|--6-6-6-6-6-6-6-6-6-6-6-6-6-6-6-6-|
--3-3-3-3-3-3-3-3-3-3-3-3-3-3-3-3-|----------------------------------|


                                                   
---------------------------|----------------------|
---------------------------|----------------------|
---------------------------|----------------------|
--3--------3--3------------|--3----3----3----5----|
--1----1-1-1--1----1-1-1-1-|--1----1----1----3----|
---------------------------|----------------------|


                                                              
|-------------------------------|----------------------------|
|-------------------------------|----------------------------|
|*------------------------------|----------------------------|
|*--7----------7----------------|--10----------10------------|
|---5--5-5-5-5-5----5-5-5-5-5-5-|--7---7-7-7-7-8-------10----|
|-------------------------------|----------------------8-----|


                                                            
-------------------------------|--------------------------||
-------------------------------|--------------------------||
-------------------------------|-------------------------*||
--7----------7--5--------------|-------------------------*||
--5--5-5-5-5-5--3--3-3-3-3-3-3-|--5----------3------5-----||
-------------------------------|--3--3-3-3-3-1------3-----||


                                                     
--------------------------------------|-------------|
--------------------------------------|-------------|
--------------------------------------|-------------|
--------------------------------------|--9---6------|
--------------------4--4--4-----------|--7---4---7--|
--6--6--6--3--3--3-----------5--5--5--|----------5--|


    verse                                                          
------------------------------|------------------------------|
------------------------------|------------------------------|
------------------------------|------------------------------|
--7----------7--7----------7--|--7----------7------7------7--|
--5--5-5-5-5-5--5--5-5-5-5-5--|--5--5-5-5-5-5--5-5-5--5-5-5--|
------------------------------|------------------------------|


                                                              
------------------------------|------------------------------|
------------------------------|------------------------------|
------------------------------|------------------------------|
--5----------5--5----------5--|--2----------5------5------5--|
--3--3-3-3-3-3--3--3-3-3-3-3--|--0--0-0-0-0-3--0-0-3--0-0-3--|
------------------------------|------------------------------|


                                                              
------------------------------|------------------------------|
------------------------------|------------------------------|
------------------------------|------------------------------|
--7----------7--7----------7--|--7----------7------7------7--|
--5--5-5-5-5-5--5--5-5-5-5-5--|--5--5-5-5-5-5--5-5-5--5-5-5--|
------------------------------|------------------------------|


                                                              
------------------------------|------------------------------|
------------------------------|------------------------------|
------------------------------|------------------------------|
--5----------5--5----------5--|------------------------------|
--3--3-3-3-3-3--3--3-3-3-3-3--|--3----------3------3------3--|
------------------------------|--1--1-1-1-1-1--1-1-1--1-1-1--|


                                                              
------------------------------|------------------------------|
------------------------------|------------------------------|
------------------------------|------------------------------|
------------------------------|------------------------------|
--5----------5--5----------7--|--8----------8------8------8--|
--3--3-3-3-3-3--3--3-3-3-3-5--|--6--6-6-6-6-6--6-6-6--6-6-6--|


                                                            
------------------------------|----------------------------|
------------------------------|----------------------------|
------------------------------|----------------------------|
------------------------------|--5----------5--------------|
--3----------3--3----------3--|--3--3-3-3-3-3--2--3--2--3--|
--1--1-1-1-1-1--1--1-1-1-1-1--|----------------0--1--0--1--|


                                                              
------------------------------|------------------------------|
------------------------------|------------------------------|
------------------------------|------------------------------|
------------------------------|------------------------------|
--5----------5--5----------7--|--8----------8------8------8--|
--3--3-3-3-3-3--3--3-3-3-3-5--|--6--6-6-6-6-6--6-6-6--6-6-6--|


                                                               
------------------------------|-------------------------------|
------------------------------|-------------------------------|
------------------------------|-------------------------------|
------------------------------|--8----------8--7--------------|
--3----------3--3----------3--|--6--6-6-6-6-6--5--5-5-5-5-5-5-|
--1--1-1-1-1-1--1--1-1-1-1-1--|-------------------------------|


          refrao                                                            
----------------------------------|----------------------------------|
----------------------------------|----------------------------------|
----------------------------------|----------------------------------|
----------------------------------|----------------------------------|
----------------------------------|--6-6-6-6-6-6-6-6-6-6-6-6-6-6-6-6-|
--3-3-3-3-3-3-3-3-3-3-3-3-3-3-3-3-|----------------------------------|


                                                                      
----------------------------------|----------------------------------|
----------------------------------|----------------------------------|
----------------------------------|----------------------------------|
----------------------------------|----------------------------------|
----------------------------------|----------------------------------|
--6-6-6-6-6-6-6-6-6-6-6-6-6-6-6-6-|--1-1-1-1-1-1-1-1-1-1-1-1-1-1-1-1-|


                                                                      
----------------------------------|----------------------------------|
----------------------------------|----------------------------------|
----------------------------------|----------------------------------|
----------------------------------|----------------------------------|
----------------------------------|----------------------------------|
--3-3-3-3-3-3-3-3-3-3-3-3-3-3-3-3-|--6-6-6-6-6-6-6-6-6-6-6-6-6-6-6-6-|


                                                                 
-------------------------------|--------------------------------|
-------------------------------|--------------------------------|
-------------------------------|--------------------------------|
--8----------7----------8------|------10----------8------7------|
--6--6-6-6-6-6--6-6-6-6-6--6-6-|--6-6-6---6-6-6-6-6--6-6-6--6-6-|
-------------------------------|--------------------------------|


                                                                      
----------------------------------|----------------------------------|
----------------------------------|----------------------------------|
----------------------------------|----------------------------------|
----------------------------------|----------------------------------|
----------------------------------|--6-6-6-6-6-6-6-6-6-6-6-6-6-6-6-6-|
--3-3-3-3-3-3-3-3-3-3-3-3-3-3-3-3-|----------------------------------|


                                                                      
----------------------------------|----------------------------------|
----------------------------------|----------------------------------|
----------------------------------|----------------------------------|
----------------------------------|----------------------------------|
----------------------------------|----------------------------------|
--6-6-6-6-6-6-6-6-6-6-6-6-6-6-6-6-|--1-1-1-1-1-1-1-1-1-1-1-1-1-1-1-1-|


                                                                      
----------------------------------|----------------------------------|
----------------------------------|----------------------------------|
----------------------------------|----------------------------------|
----------------------------------|----------------------------------|
----------------------------------|--6-6-6-6-6-6-6-6-6-6-6-6-6-6-6-6-|
--3-3-3-3-3-3-3-3-3-3-3-3-3-3-3-3-|----------------------------------|


                                                                       
---------------------------|----------------------|-------------------|
---------------------------|----------------------|-------------------|
---------------------------|----------------------|-------------------|
--3--------3--3------------|--3----3----3----3----|--5----------------|
--1----1-1-1--1----1-1-1-1-|--1----1----1----2----|--3----------------|
---------------------------|----------------------|-------------------|

outro Under the sun........
                                                                 
-------------------|-----------------------|--------------------|
-------------------|------------3----------|--3--------2--------|
-------------------|------------3----------|--2--------2--------|
-------------------|------------2----------|--2--------2--------|
--2----------------|-----------------------|--------------------|
--0----------------|--3--3-3-3-------------|--------------------|


                                                                      
----------------------------------|----------------------------------|
----------------------------------|----------------------------------|
----------------------------------|----------------------------------|
----------------------------------|----------------------------------|
--5-5-5-5-5-5-5-5-5-5-5-5-5-5-5-5-|--3-3-3-3-3-3-3-3-3-3-3-3-3-3-3-3-|
----------------------------------|----------------------------------|


                                                                                
-------------------|-------------------|-------------------|-------------------|
-------------------|-------------------|-------------------|-------------------|
-------------------|-------------------|-------------------|-------------------|
--3----------------|-------------------|--5----------------|-------------------|
--1----------------|--5----------------|--3----------------|--2----------------|
-------------------|--3----------------|-------------------|--0----------------|


                                                                                
-----------------------|--------------------|----------------------------------|
------------3----------|--3--------2--------|----------------------------------|
------------3----------|--2--------2--------|----------------------------------|
------------2----------|--2--------2--------|----------------------------------|
-----------------------|--------------------|--5-5-5-5-5-5-5-5-5-5-5-5-5-5-5-5-|
--3--3-3-3-------------|--------------------|----------------------------------|


                                                                           
----------------------------------|-------------------|-------------------|
----------------------------------|-------------------|-------------------|
----------------------------------|-------------------|-------------------|
----------------------------------|--4----------------|-------------------|
--3-3-3-3-3-3-3-3-3-3-3-3-3-3-3-3-|--2----------------|--2----------------|
----------------------------------|-------------------|--0----------------|


                                                               
-------------------|------------------|-----------------------|
-------------------|------------------|-----------------------|
-------------------|------------------|-----------------------|
--2----------------|------------------|--7------7--------7----|
--0----------------|------------------|--5------5----5-5-5----|
-------------------|------------------|-----------------------|


                                                                            
---------------------------|----------------------|------------------------|
---------------------------|----------------------|------------------------|
---------------------------|----------------------|------------------------|
--------7-----------7------|--9----------9--------|--9---------------------|
--------5----5-7-8---------|--7----------7----7-7-|--7------10----9--5--5--|
---------------------------|----------------------|---------------------3--|


                                                                             
----------------------|-------------|-------------------|-------------------|
----------------------|-------------|-------------------|-------------------|
----------------------|-------------|-------------------|-------------------|
----------------------|-------------|--2----------------|--2----------------|
--------5--------5----|----5--------|--0----------------|--0----------------|
--------3----3-3-3----|----3----3-3-|-------------------|-------------------|


                                                                      
----------------------------------|----------------------------------|
----------------------------------|----------------------------------|
----------------------------------|------------------2h4---2---------|
------2-----4-----4h5p4p2h4p2-----|------2-----4---------2---2h4---2-|
--2-2---2-2---2-2-------------5p4-|--2-2---2-2---2-2-------------5---|
----------------------------------|----------------------------------|


                                                                      
----------------------------------|----------------------------------|
----------------------------------|----------------------------------|
----------------------------------|------------------2-4---2---------|
------2-----4-----4h5p4p2h4p2-----|------2-----4---------4---2-4---2-|
--0-0---0-0---0-0-------------5p4-|--0-0---0-0---0-0-------------5---|
----------------------------------|----------------------------------|


                                                                      
----------------------------------|----------------------------------|
----------------------------------|----------------------------------|
----------------------------------|----------------------------------|
------2-----4-----4h5p4p2h4p2-----|------5-----7-----7h9p7p5h7p5-----|
------------------------------5p4-|------------------------------9p7-|
--3-3---3-3---3-3-----------------|--0-0---0-0---0-0-----------------|


                                                 
----------------------|-------------------------|
----------------------|-------------------------|
-----------11----9----|--12----11----9----11----|
--7-------------------|-------------------------|
--5--------9-----7----|--10----9-----7----9-----|
--5-------------------|-------------------------|


                                                                       
----------------------------------|-----------------------------------|
----------------------------------|-----------------------------------|
----------------------------------|------------------6h7---6----------|
------5-----7-----7h9p7p5h7p5-----|------5-----7---------9---7h9----7-|
------------------------------9p7-|------------------------------10---|
--7-7---7-7---7-7-----------------|--7-7---7-7---7-7------------------|


                                                                      
----------------------------------|----------------------------------|
----------------------------------|----------------------------------|
----------------------------------|------------------6h7---6---------|
------5-----7-----7h9p7p5h7p5-----|------5-----7---------7---5h7---5-|
--4-4---4-4---4-4-------------9p7-|--4-4---4-4---4-4-------------9---|
----------------------------------|----------------------------------|


                                                                             
----------------------------------|-----------------------------------------|
----------------------------------|-----------------------------------------|
----------------------------------|-----------------------------------------|
------5-----7-----7h9p7p5h7p5-----|------9-----11-----11h12p11p9h11p9-------|
------------------------------9-7-|-----------------------------------12-10-|
--7-7---7-7---7-7-----------------|--0-0---0-0----0-0-----------------------|

Rafael
--------------------------|--------------------------|
--------------7-----------|--------------5-----------|
--------7--------7-----7--|--------6--------6-----6--|
-----7-----7--------7-----|-----5-----5--------5-----|
--5-----------------------|--4-----------------------|
--------------------------|--------------------------|


                                                      
--------------------------|--------------------------|
--------------5-----------|--------------3-----------|
--------5--------5-----5--|--------4--------4-----4--|
-----5-----5--------5-----|-----5-----5--------5-----|
--3-----------------------|--2-----------------------|
--------------------------|--------------------------|


                                                      
--------------------------|--------------------------|
--------------3-----------|--------------1-----------|
--------3--------3-----3--|--------2--------2-----2--|
-----3-----3--------5-----|-----2-----2--------2-----|
--1-----------------------|--0-----------------------|
--------------------------|--------------------------|
                                                                     
----------------------|-------------------------|----------------------|
----------------------|-------------------------|----------------------|
-----------11----9----|--12----11----9----11----|--6--------11----9----|
--7-------------------|-------------------------|----------------------|
--5--------9-----7----|--10----9-----7----9-----|--4--------9-----7----|
--5-------------------|-------------------------|----------------------|


                                                                       
----------------------|----------------------|------------------------|
----------------------|----------------------|------------------------|
--9----7----6----7----|--4--------11----9----|--12----11----9----7----|
----------------------|----------------------|------------------------|
--7----5----4----5----|--2--------9-----7----|--10----9-----7----5----|
----------------------|----------------------|------------------------|


                                                                       
------------------------|--------------------|------------------------|
------------------------|--------------------|------------------------|
--11------------11--12--|--11----------------|--11--------11----14----|
------------------------|--------------------|------------------------|
--9-------------9---10--|--9-----------------|--9---------9-----12----|
------------------------|--------------------|------------------------|


                                                                         
-------------------------|-----------------------|----------------------|
-------------------------|-----------------------|----------------------|
--14----12----11----9----|--12--------11----9----|--9----7----6----7----|
-------------------------|-----------------------|----------------------|
--12----10----9-----7----|--10--------9-----7----|--7----5----4----5----|
-------------------------|-----------------------|----------------------|


                                                                          
------------------------|-------------------------|----------------------|
------------------------|-------------------------|----------------------|
--10--------10----14----|--14----10----9----10----|--12------7--7--------|
------------------------|-------------------------|----------------------|
--8---------8-----12----|--12----8-----7----8-----|--10------5--5--------|
------------------------|-------------------------|----------------------|


                                                                       
------------------------|----------------------|----------------------|
------------------------|----------------------|----------------------|
--14------15--14--------|--7------9------10----|----12------15b-------|
------------------------|----------------------|----------------------|
--12------13--12--------|----------------------|----------------------|
------------------------|----------------------|----------------------|

Kiko
                                 
--------------------------------|
--13----------13----------13----|
--13----------13----------13----|
--------15-15-------15-15-------|
--------------------------------|
--------------------------------|


                                                   
--------------------------------------------------|
--------------------------------------------------|
--------------------------------------------------|
--15p13-------13----------------------------------|
--------15-14----15-14-13-13-11-13p11-13p11-------|
--------------------------------------------13p11-|


                                           
------------------------------------------|
---------------8h11p8--------------8h10p8-|
------------------------------------------|
--12p8----8h12--------12p8----8h12--------|
-------10------------------10-------------|
------------------------------------------|


                                                
-----------------------------------------------|
-----8--------------11h15p11----11-------------|
-----------------------------15----14p12----12-|
--12---12p8----8h12----------------------15----|
------------10---------------------------------|
-----------------------------------------------|


                                                                           
--17-15----------15-14----------------------------------------------------|
--------------------------------------15-14-13----------------------------|
--------19-17-15-------19-15-14-12-11----------15-14-12-------------------|
--------------------------------------------------------13-12-10----------|
-----------------------------------------------------------------13-12-10-|
--------------------------------------------------------------------------|




      T             T       T       T             T      T       
--10h12p10p7h10p7---------------10h12p10p7h10p7---------------|
------------------9h12p9------------------------9h12p9--------|
-------------------------9h13p9------------------------9h13p9-|
--------------------------------------------------------------|
--------------------------------------------------------------|
--------------------------------------------------------------|


      T              T        T        T             T       T          
--12h13p12p8h12p8-----------------12h13p12p8h12p8-----------------|
------------------10h13p10------------------------10h13p10--------|
---------------------------9h14p9--------------------------9h14p9-|
------------------------------------------------------------------|
------------------------------------------------------------------|
------------------------------------------------------------------|


      T              T       T        T              T      T        
--10h12p10p7h10p7---------------10h12p10p7h10p7---------------|
------------------9h12p9------------------------9h12p9--------|
-------------------------9h13p9------------------------9h13p9-|
--------------------------------------------------------------|
--------------------------------------------------------------|
--------------------------------------------------------------|


      T               T       T         T             T       T          
--12h13p12p8h12p8-----------------12h13p12p8h12p8-----------------|
------------------10h13p10------------------------10h13p10--------|
---------------------------9h14p9--------------------------9h14p9-|
------------------------------------------------------------------|
------------------------------------------------------------------|
------------------------------------------------------------------|


      T                 T                 T                 T                  
--13h17p13p10h13p10-------------------13h17p13p10h13p10-------------------|
--------------------15h17p15p10h15p10-------------------15h17p15p10h15p10-|
--------------------------------------------------------------------------|
--------------------------------------------------------------------------|
--------------------------------------------------------------------------|
--------------------------------------------------------------------------|


      T               T               T               T                
--12h15p12p8h12p8-----------------12h15p12p8h12p8-----------------|
------------------13h15p13p8h13p8-----------------13h15p13p8h13p8-|
------------------------------------------------------------------|
------------------------------------------------------------------|
------------------------------------------------------------------|
------------------------------------------------------------------|


      T              T      T       T              T      T          
--10h12p10p7h10p7---------------10h12p10p7h10p7---------------|
------------------9h12p9------------------------9h12p9--------|
-------------------------9h13p9------------------------9h13p9-|
--------------------------------------------------------------|
--------------------------------------------------------------|
--------------------------------------------------------------|

 kiko
-------------------8----|--13----12----------------|--15----13----12----------|
--9----10----12---------|--------------10----11----|--------------------13----|
------------------------|--------------------------|--------------------------|
------------------------|--------------------------|--------------------------|
------------------------|--------------------------|--------------------------|
------------------------|--------------------------|--------------------------|

                                                     
--------------------12----|--17----15----------------|
--12----13----15----------|--------------13----15----|
--------------------------|--------------------------|
--------------------------|--------------------------|
--------------------------|--------------------------|
--------------------------|--------------------------|


                                                
--18----17----15----------|--22----------------|
--------------------17----|--------------------|
--------------------------|--------------------|
--------------------------|--------------------|
--------------------------|--------------------|
--------------------------|--------------------|

                                   dobra de guitarras                 
--17----------------|--------------------------------------------------|
--------------------|--------------------------------------------------|
--------------------|-----------------------------------------------12-|
--------------------|--------------12-------12-14----12-14-15-14-15----|
--------------------|--13-12-13-15----13-15-------15-------------------|
--------------------|--------------------------------------------------|


                                                                           
--------------------------------------------------------------------12-13-|
-----------------------------------------------------------11-13-15-------|
--14-12-10----10-12-14-12-10----10-12-14-12-10----10-12-14----------------|
-----------14----------------14----------------14-------------------------|
--------------------------------------------------------------------------|
--------------------------------------------------------------------------|



Rafael                                                   
--------------------------------------------------|
--------------------------------------------------|
--------------------------------------14----14-15-|
-----------14-15----14-15-17-14-15-17----17-------|
--17-15-17-------17-------------------------------|
--------------------------------------------------|


                                                                           
--------------------------------------------------------------------15-17-|
-----------------------------------------------------------15-17-18-------|
--17-15-14----14-15-17-15-14----14-15-17-15-14----14-15-17----------------|
-----------17----------------17----------------17-------------------------|
--------------------------------------------------------------------------|
--------------------------------------------------------------------------|


                                                                       
--15-------------------------------|----------------------------------|
-----------------------------------|----------------------------------|
-----------------------------------|----------------------------------|
-----------------------------------|----------------------------------|
-----------------------------------|--6-6-6-6-6-6-6-6-6-6-6-6-6-6-6-6-|
--3--3-3-3-3-3-3-3-3-3-3-3-3-3-3-3-|----------------------------------|


                                                                      
----------------------------------|----------------------------------|
----------------------------------|----------------------------------|
----------------------------------|----------------------------------|
----------------------------------|----------------------------------|
----------------------------------|----------------------------------|
--6-6-6-6-6-6-6-6-6-6-6-6-6-6-6-6-|--1-1-1-1-1-1-1-1-1-1-1-1-1-1-1-1-|


                                                                      
----------------------------------|----------------------------------|
----------------------------------|----------------------------------|
----------------------------------|----------------------------------|
----------------------------------|----------------------------------|
----------------------------------|----------------------------------|
--3-3-3-3-3-3-3-3-3-3-3-3-3-3-3-3-|--6-6-6-6-6-6-6-6-6-6-6-6-6-6-6-6-|


                                                                 
-------------------------------|--------------------------------|
-------------------------------|--------------------------------|
-------------------------------|--------------------------------|
--8----------7----------8------|------10----------8------7------|
--6--6-6-6-6-6--6-6-6-6-6--6-6-|--6-6-6---6-6-6-6-6--6-6-6--6-6-|
-------------------------------|--------------------------------|


                                                                      
----------------------------------|----------------------------------|
----------------------------------|----------------------------------|
----------------------------------|----------------------------------|
----------------------------------|----------------------------------|
----------------------------------|--6-6-6-6-6-6-6-6-6-6-6-6-6-6-6-6-|
--3-3-3-3-3-3-3-3-3-3-3-3-3-3-3-3-|----------------------------------|


                                                                      
----------------------------------|----------------------------------|
----------------------------------|----------------------------------|
----------------------------------|----------------------------------|
----------------------------------|----------------------------------|
----------------------------------|----------------------------------|
--6-6-6-6-6-6-6-6-6-6-6-6-6-6-6-6-|--1-1-1-1-1-1-1-1-1-1-1-1-1-1-1-1-|


                                                                      
----------------------------------|----------------------------------|
----------------------------------|----------------------------------|
----------------------------------|----------------------------------|
----------------------------------|----------------------------------|
----------------------------------|--6-6-6-6-6-6-6-6-6-6-6-6-6-6-6-6-|
--3-3-3-3-3-3-3-3-3-3-3-3-3-3-3-3-|----------------------------------|


                                                                       
---------------------------|----------------------|-------------------|
---------------------------|----------------------|-------------------|
---------------------------|----------------------|-------------------|
--3--------3--3------------|--3----3----3----3----|--5----------------|
--1----1-1-1--1----1-1-1-1-|--1----1----1----2----|--3----------------|
---------------------------|----------------------|-------------------|


                                                                 
-------------------|-----------------------|--------------------|
-------------------|------------3----------|--3--------2--------|
-------------------|------------3----------|--2--------2--------|
-------------------|------------2----------|--2--------2--------|
--2----------------|-----------------------|--------------------|
--0----------------|--3--3-3-3-------------|--------------------|


                                                                      
----------------------------------|----------------------------------|
----------------------------------|----------------------------------|
----------------------------------|----------------------------------|
----------------------------------|----------------------------------|
--5-5-5-5-5-5-5-5-5-5-5-5-5-5-5-5-|--3-3-3-3-3-3-3-3-3-3-3-3-3-3-3-3-|
----------------------------------|----------------------------------|


                                                                                
-------------------|-------------------|-------------------|-------------------|
-------------------|-------------------|-------------------|-------------------|
-------------------|-------------------|-------------------|-------------------|
--3----------------|-------------------|--5----------------|-------------------|
--1----------------|--5----------------|--3----------------|--2----------------|
-------------------|--3----------------|-------------------|--0----------------|


                                                                                
-----------------------|--------------------|----------------------------------|
------------3----------|--3--------2--------|----------------------------------|
------------3----------|--2--------2--------|----------------------------------|
------------2----------|--2--------2--------|----------------------------------|
-----------------------|--------------------|--5-5-5-5-5-5-5-5-5-5-5-5-5-5-5-5-|
--3--3-3-3-------------|--------------------|----------------------------------|


                                                                           
----------------------------------|-------------------|-------------------|
----------------------------------|-------------------|-------------------|
----------------------------------|-------------------|-------------------|
----------------------------------|--3----------------|-------------------|
--3-3-3-3-3-3-3-3-3-3-3-3-3-3-3-3-|--1----------------|--5----------------|
----------------------------------|-------------------|--3----------------|


                                                                
-------------------|-------------------|-----------------------|
-------------------|-------------------|------------3----------|
-------------------|-------------------|------------3----------|
--5----------------|-------------------|------------2----------|
--3----------------|--2----------------|-----------------------|
-------------------|--0----------------|--3--3-3-3-------------|


                                                        
--------------------|----------------------------------|
--3--------2--------|----------------------------------|
--2--------2--------|----------------------------------|
--2--------2--------|----------------------------------|
--------------------|--5-5-5-5-5-5-5-5-5-5-5-5-5-5-5-5-|
--------------------|----------------------------------|


                                                                           
----------------------------------|-------------------|-------------------|
----------------------------------|-------------------|-------------------|
----------------------------------|-------------------|-------------------|
----------------------------------|--3----------------|-------------------|
--3-3-3-3-3-3-3-3-3-3-3-3-3-3-3-3-|--1----------------|--5----------------|
----------------------------------|-------------------|--3----------------|


                                                                
-------------------|-------------------|-----------------------|
-------------------|-------------------|------------3----------|
-------------------|-------------------|------------3----------|
--5----------------|-------------------|------------2----------|
--3----------------|--2----------------|-----------------------|
-------------------|--0----------------|--3--3-3-3-------------|


                                                        
--------------------|----------------------------------|
--3--------2--------|----------------------------------|
--2--------2--------|----------------------------------|
--2--------2--------|----------------------------------|
--------------------|--5-5-5-5-5-5-5-5-5-5-5-5-5-5-5-5-|
--------------------|----------------------------------|


                                                                           
----------------------------------|-------------------|-------------------|
----------------------------------|-------------------|-------------------|
----------------------------------|-------------------|-------------------|
----------------------------------|--3----------------|-------------------|
--3-3-3-3-3-3-3-3-3-3-3-3-3-3-3-3-|--1----------------|--5----------------|
----------------------------------|-------------------|--3----------------|


                                                                
-------------------|-------------------|-----------------------|
-------------------|-------------------|------------3----------|
-------------------|-------------------|------------3----------|
--5----------------|-------------------|------------2----------|
--3----------------|--2----------------|-----------------------|
-------------------|--0----------------|--3--3-3-3-------------|


                                                        
--------------------|----------------------------------|
--3--------2--------|----------------------------------|
--2--------2--------|----------------------------------|
--2--------2--------|----------------------------------|
--------------------|--5-5-5-5-5-5-5-5-5-5-5-5-5-5-5-5-|
--------------------|----------------------------------|


                                                                           
----------------------------------|-------------------|-------------------|
----------------------------------|-------------------|-------------------|
----------------------------------|-------------------|-------------------|
----------------------------------|--3----------------|-------------------|
--3-3-3-3-3-3-3-3-3-3-3-3-3-3-3-3-|--1----------------|--5----------------|
----------------------------------|-------------------|--3----------------|


                                                                
-------------------|-------------------|-----------------------|
-------------------|-------------------|------------3----------|
-------------------|-------------------|------------3----------|
--5----------------|-------------------|------------2----------|
--3----------------|--2----------------|-----------------------|
-------------------|--0----------------|--3--3-3-3-------------|


                                                        
--------------------|----------------------------------|
--3--------2--------|----------------------------------|
--2--------2--------|----------------------------------|
--2--------2--------|----------------------------------|
--------------------|--5-5
Colaboração e revisão:
  • Gabriel Lopes
6.331 exibições
    • ½ Tom
    • A
    • Bb
    • B
    • C
    • Db
    • D
    • Eb
    • E
    • F
    • F#
    • G
    • Ab
  • Adicionar à lista

    0 comentários

    Mostrar mais comentários

    Conseguiu tocar?

    0 Tocaram 0 Ainda não

    Grave um vídeo tocando Running Alone (versão 2) e mande pra gente!

    00:00 / 00:00
    outros vídeos desta música
    repetir qualidade Automático
    Outros vídeos desta música
    00:00 / 00:00
    Automático

    Cifra Club Pro

    Aproveite o Cifra Club com benefícios exclusivos e sem anúncios
    Cifra Club Pro
    Aproveite o Cifra Club com benefícios exclusivos e sem anúncios
    OK