Cifra Club

Aprenda

Temple of Hate

Angra

Cifra: Principal (violão e guitarra)
Tom: G
Intro

  E5
e|---|----------------------------------
B|---|-------7--8--7--------------------
G|---|----9-----------9--7--------------
D|-2-|----------------------9--7--------
A|-2-|-7--------------------------9--7--
E|-0-|---------------------------------- 2x

   B5  B5    B5
e|--------|-7h8p7---------------
B|--------|---------10p8p7------
G|--------|-----------------8~--
D|-9--9---|---------------------
A|-9--9---|---------------------
E|-7--7---|--------------------- 2x
__________________________ até aqui 2x
    
    A5                            B5              E5
e|------------------------------------------------
B|------------12--13--12-------------|-12---------
G|--------14--------------14--12--11~|----11--8--9~
D|----14------------------------------------------
A|------------------------------------------------
E|------------------------------------------------

   E5
e|---|----------------------------------
B|---|-------7--8--7--------------------
G|---|----9-----------9--7--------------
D|-2-|----------------------9--7--------
A|-2-|-7--------------------------9--7--
E|-0-|---------------------------------- 2x

    A5                            B5              E5
e|----------------------------------------11---14~
B|------------12--13--12-------------|-12---------
G|--------14--------------14--12--11~|------------
D|----14------------------------------------------
A|------------------------------------------------
E|------------------------------------------------
 ... C    D    B7  (em cada acorde tocado, 
 faça a subida e descida de sua respectiva escala maior)

(subida e descida da escala Em melódica)

    E5   B5   Em   (pausadamente)
e|---------------
B|---------------
G|------4--------
D|-2----4----2---
A|-2----2----2----
E|-0---------0----

Agora entra um Riff na seguinte base (E5 B5 C5 D5)2x
__________________fim da intro___________________

Verso:

 Em                                      D        C#º
!--------------------------------------------------------
!--------------------------------------------------------
!--------------------------------------------------------
!-9-x-x-9-x-x-9-x-x-9-x-x-9-x-x-9-x-9--x-7--x-x-x-7-x-x-7
!-7-x-x-7-x-x-7-x-x-7-x-x-7-x-x-7-x-7--x-5--x-x-x-4-x-x-4
!--------------------------------------------------------
 Em                                      C        D
!--------------------------------------------------------
!--------------------------------------------------------
!--------------------------------------------------------
!-9-x-x-9-x-x-9-x-x-9-x-x-9-x-x-9-x-9--x-5--x-x-x-7-x-x-7
!-7-x-x-7-x-x-7-x-x-7-x-x-7-x-x-7-x-7--x-3--x-x-x-5-x-x-5
!--------------------------------------------------------

Bridge:

Am  G   B    Em
        Right Now!
_______________________ repete verso_______

Bridge2:

Am  G  B  C  D...

Bridge3:

G    C   Em  D
B7   Em  D   C    D5 3x (pausa)                Em
          Better...           in the Temple of Hate!

Pre-solo (2x)
!------------------------------------------------------
!------------------------------------------------------
!------------------------------------------------------
!-----9---10---9-----7---------7-----------------------
!-7-7---7----7----10---10-9-10---10-9------------------
!------------------------------------------------------

Solo com tapping (início)
   T T T  T T T  T T T  T T T  T T T  T T T  T T T  T T T  T T T  T T T  T T T  T T T 
!--------------------------------------------------------------------------------------
!-12-0-8-12-0-8-12-0-8-12-0-8-12-0-8-12-0-8--10-0-7-10-0-7-10-0-7-10-0-7-10-0-7-10-0-7-
!--------------------------------------------------------------------------------------

   T T T   T T T   T T T   T T T   T T T    T T T  T T T  T T T  T T T  T T T  T T T  
!-13-0-10-13-0-10-13-0-10-13-0-10-13-0-10--12-0-8-12-0-8-12-0-8-12-0-8-12-0-8-12-0-8---
!--------------------------------------------------------------------------------------
!--------------------------------------------------------------------------------------
Composição de Bittencourt / Kiko Loureiro
Colaboração e revisão:
  • Renato Mestre
28.804 exibições
    • ½ Tom
    • A
    • Bb
    • B
    • C
    • Db
    • D
    • Eb
    • E
    • F
    • F#
    • G
    • Ab
  • Adicionar à lista

    0 comentários

    Mostrar mais comentários

    Conseguiu tocar?

    1 Tocaram 0 Ainda não

    Grave um vídeo tocando Temple of Hate e mande pra gente!

    00:00 / 00:00
    outros vídeos desta música
    repetir qualidade Automático
    Outros vídeos desta música
    00:00 / 00:00
    Automático

    Cifra Club Pro

    Aproveite o Cifra Club com benefícios exclusivos e sem anúncios
    Cifra Club Pro
    Aproveite o Cifra Club com benefícios exclusivos e sem anúncios
    OK