Cifra Club

Winds Of Destination

Angra

Cifra: Principal (violão e guitarra)
Tom: D
------------------------------|--------------------------| 
------------------------------|--------------------------| 
------------------------------|--------------------------| 
--9-9----9-9----9-9----9-9----|--9-9----9-9----9--10--7--| 
--7-7----7-7----7-7----7-7----|--7-7----7-7----7--8---5--| 
------0------0------0------0--|------0------0--7--8---5--| 
                                                    
------------------------------|-------------------| 
------------------------------|-------------------| 
------------------------------|-------------------| 
--9-9----9-9----9-9----9-9----|--9-9----9--10--7--| 
--7-7----7-7----7-7----7-7----|--7-7----7--8---5--| 
------0------0------0------0--|------0--7--8---5--| 
                    
------------------------------|--------------------------| 
------------------------------|--------------------------| 
------------------------------|--------------------------| 
--9-9----9-9----9-9----9-9----|--9-9----9-9----9--10--7--| 
--7-7----7-7----7-7----7-7----|--7-7----7-7----7--8---5--| 
------0------0------0------0--|------0------0--7--8---5--| 
                                                       
---------------------------|-------------------------| 
---------------------------|-------------------------| 
---------------------------|-------------------------| 
--9-9----9-9----9-9----9-9-|-----9--7----------------| 
--7-7----7-7----7-7----7-7-|-----7--5----------------| 
------0------0------0------|--0--7--5----------------| 
                                                    
------------------------------|--------------------------| 
------------------------------|--------------------------| 
------------------------------|--------------------------| 
--9-9----9-9----9-9----9-9----|--9-9----9-9----9--10--7--| 
--7-7----7-7----7-7----7-7----|--7-7----7-7----7--8---5--| 
------0------0------0------0--|------0------0--7--8---5--| 
                                                    
------------------------------|-------------------| 
------------------------------|-------------------| 
------------------------------|-------------------| 
--9-9----9-9----9-9----9-9----|--9-9----9--10--7--| 
--7-7----7-7----7-7----7-7----|--7-7----7--8---5--| 
------0------0------0------0--|------0--7--8---5--| 
                                                          
------------------------------|--------------------------| 
------------------------------|--------------------------| 
------------------------------|--------------------------| 
--9-9----9-9----9-9----9-9----|--9-9----9-9----9--10--7--| 
--7-7----7-7----7-7----7-7----|--7-7----7-7----7--8---5--| 
------0------0------0------0--|------0------0--7--8---5--| 
                                                     
------------------------------|--------------------| 
------------------------------|--------------------| 
------------------------------|--------------------| 
--9-9----9-9----9-9----9-9----|-----7--------------| 
--7-7----7-7----7-7----7-7----|-----5--------------| 
------0------0------0------0--|--0--5--------------| 
                                        
--------------------------------------| 
--------------------------------------| 
--------------------------------------| 
--9----9--7---------------------------| 
--7----7--5---------7-----5-----9-----| 
--7----7--5--0-0-0--7--0--5--0--9--0--| 
                                          
-----------------------------------------| 
-----------------------------------------| 
-----------------------------------------| 
--9----9--7------------------------------| 
--7----7--5------------------------------| 
--7----7--5--0-0-0--0-0-0--0-0-0--0-0-0--| 
                                       
--------------------------------------| 
--------------------------------------| 
--------------------------------------| 
--9----9--7---------------------------| 
--7----7--5---------7-----5-----9-----| 
--7----7--5--0-0-0--7--0--5--0--9--0--| 
                                          
-----------------------------------------| 
-----------------------------------------| 
-----------------------------------------| 
--9----9--7------------------------------| 
--7----7--5------------------------------| 
--7----7--5--0-0-0--0-0-0--0-0-0--0-0-0--| 
                                        
--------------------------------------| 
--------------------------------------| 
--------------------------------------| 
--9----9--7---------------------------| 
--7----7--5---------7-----5-----9-----| 
--7----7--5--0-0-0--7--0--5--0--9--0--| 
                                                                        
-----------------------------------------|----------------------------| 
-----------------------------------------|----------------------------| 
-----------------------------------------|----------------------------| 
--9----9--7------------------------------|--9--7------7--6------6--5--| 
--7----7--5---------7-----7-----5--------|--7--5------5--4------4--3--| 
--7----7--5--0-0-0--7--0--7--0--5--0--0--|--7--5--0-0-5--4--0-0-4--3--| 
                                                          
----------------------------|----------------------------| 
----------------------------|----------------------------| 
----------------------------|----------------------------| 
------5--4------------------|----------------------------| 
------3--2------3--1--------|----------------------------| 
--0-0-3--2--0-0-------3--2--|--0--3--2--0--5-5-3--5-5-3--| 
                                                                     
------------------------------|---------------------|-------------------| 
------------------------------|---------------------|-------------------| 
------------------------------|---------------------|-------------------| 
------------------------------|--2------------------|--5----------------| 
------------------------------|--2------------------|--5----------------| 
--5-5-3--0--5-5-3--0--5-5-3-3-|--0------------0--2--|--3----------------| 
                                                         
--------------------|---------------------|-------------------| 
--------------------|---------------------|-------------------| 
--------------------|---------------------|-------------------| 
--5--------4--------|--2------------------|--5----------------| 
--3--------2--------|--2------------------|--5----------------| 
--3--------2--------|--0------------0--2--|--3----------------| 
                                                            
--------------------|------------------------|---------------------| 
--------------------|------------------------|---------------------| 
--------------------|------------------------|---------------------| 
--5--------4--------|--9-----9-----9--10--7--|--9------------------| 
--3--------2--------|--7-----7-----7--8---5--|--7------------------| 
--3--------2--------|--7--0--7--0--7--8---5--|--7------------------| 
                                                       
-----------------------------|----------------------------| 
-----------------------------|----------------------------| 
-----------------------------|----------------------------| 
--4------5------4------3--4--|------5------4--------4--5--| 
--2--2-2-2--2-2-2--2-2-2--2--|--2-2-2--2-2-2--------2--3--| 
-----------------------------|----------------2--0--2--3--| 
                                                          
------------------------------|-------------------------| 
------------------------------|-------------------------| 
------------------------------|-------------------------| 
--4------5------4----------5--|-------------------7--5--| 
--2--2-2-2--2-2-2--2-2-2-2-3--|-------------2--3--5--3--| 
---------------------------3--|----0--2--0--2--3--5--3--| 
                                                                    
-----------------------------|---------------|---------------------------| 
-----------------------------|---------------|---------------------------| 
-----------------------------|---------------|---------------12----11----| 
--4------5------4------3--4--|---------------|---------------12----12----| 
--2--2-2-2--2-2-2--2-2-2--2--|--2-2-3--2--1--|---------------------------| 
-----------------------------|------3--2--1--|--0--0-0-0--0--------------| 
                                                  
-------------------------|-----------------------------| 
-------------------------|-----------------------------| 
---------------7----6----|-----------------------------| 
---------------7----7----|--4------5------4------3--4--| 
--0--0-0-0--0------------|--2--2-2-2--2-2-2--2-2-2--2--| 
-------------------------|-----------------------------|
                                                           
----------------------------|------------------------------| 
----------------------------|------------------------------| 
----------------------------|------------------------------| 
------5------4--------4--5--|--4------5------4----------5--| 
--2-2-2--2-2-2--------2--3--|--2--2-2-2--2-2-2--2-2-2-2-3--| 
----------------2--0--2--3--|---------------------------3--| 
                                                                         
-------------------------|-----------------------------|---------------| 
-------------------------|-----------------------------|---------------| 
-------------------------|-----------------------------|---------------| 
-------------------7--5--|--4------5------4------3--4--|---------------| 
-------------2--3--5--3--|--2--2-2-2--2-2-2--2-2-2--2--|--2-2-3--2--1--| 
----0--2--0--2--3--5--3--|-----------------------------|------3--2--1--| 
                                                       
---------------------------|-------------------------| 
---------------------------|-------------------------| 
---------------12----11----|---------------7----6----| 
---------------12----12----|---------------7----7----| 
---------------------------|--0--0-0-0--0------------| 
--0--0-0-0--0--------------|-------------------------| 
                                                           
-----------------------------|----------------------------| 
-----------------------------|----------------------------| 
-----------------------------|-----------------------4----| 
--4------5------4------3--4--|------5------4--------------| 
--2--2-2-2--2-2-2--2-2-2--2--|--2-2-2--2-2-2--2-2-2-------| 
-----------------------------|----------------------------|
                                                               
------------------------------|------------------------------| 
------------------------------|------------------------------| 
------------------------------|------------------------------| 
------------------------------|------------------------------| 
------------------------------|------------------------------| 
------------------------------|------------------------------|                                                     
                                                             
--------------------------|-------------------|------------------| 
--------------------------|-------------------|------------------| 
--------------------------|--7----------------|------------------| 
--------------------------|--7----------------|------------------| 
--------------------------|--5----------------|------------------| 
--------------------------|-------------------|------------------|
                                                                                 
-------------------|-------------------|-------------------|-------------------| 
-------------------|-------------------|-------------------|-------------------| 
--5----------------|--2----------------|-------------------|-------------------| 
--5----------------|--2----------------|--5----------------|--4----------------| 
--3----------------|--0----------------|--5----------------|--2----------------| 
-------------------|-------------------|--3----------------|-------------------| 
                                                                            
----------------------------------|-------------------|-------------------| 
----------------------------------|-------------------|-------------------| 
----------------------------------|-------------------|--2----------------| 
----------------------------------|--2----------------|--2----------------| 
--2-3-3-3-3-3-2-3-3-3-3-3-2-3-3-3-|--2----------------|--0----------------| 
----------------------------------|--0----------------|-------------------| 
                                                             
-------------------|-------------------|-------------------| 
-------------------|-------------------|-------------------| 
-------------------|-------------------|--5----------------| 
--5----------------|--4----------------|--5----------------| 
--5----------------|--2----------------|--3----------------| 
--3----------------|-------------------|-------------------| 
                                                                
----------------------------------|-------------------|------------------| 
----------------------------------|-------------------|------------------| 
----------------------------------|-------------------|------------------| 
----------------------------------|--7----------------|------------------| 
--5-7-7-7-7-7-5-7-7-7-7-7-5-7-7-7-|--7----------------|------------------| 
----------------------------------|--5----------------|------------------| 
                                                                 
-------------------|------------------|------------------|------------------| 
-------------------|------------------|------------------|------------------| 
-------------------|------------------|------------------|------------------| 
--5----------------|------------------|------------------|------------------| 
--5----------------|------------------|------------------|------------------| 
--3----------------|------------------|------------------|------------------|
                                                        
Bridge antes do solo 
                                                                       
----------------------|----------------------|--------------------------------| 
----------------------|----------------------|--------------------------------| 
----------------------|----------------------|-----------5--9-----------5--9--| 
----------------------|----------------------|-----7--9-----------7--9--------| 
----------------------|----------------------|--7--------------7--------------| 
----------------------|----------------------|--------------------------------| 

                                                                         
------------------------------------|----------------------------------| 
------------------------------------|----------------------------------| 
----------------9----------------9--|---------------9---------------9--| 
------7--9--10--------7-7-9--10-----|-----7--9--10--------7--9--10-----| 
--7-7--------------7----------------|--7---------------7---------------| 
------------------------------------|----------------------------------| 
                                                                         
------------------------------------|----------------------------------| 
------------------------------------|----------------------------------| 
----------------9----------------9--|---------------9---------------9--| 
------7--9--10--------7-7-9--10-----|-----7--9--10--------7--9--10-----| 
--7-7--------------7----------------|--7---------------7---------------| 
------------------------------------|----------------------------------| 
                                                                         
------------------------------------|----------------------------------| 
------------------------------------|----------------------------------| 
----------------9----------------9--|---------------9---------------9--| 
------7--9--10--------7-7-9--10-----|-----7--9--10--------7--9--10-----| 
--7-7--------------7----------------|--7---------------7---------------| 
------------------------------------|----------------------------------| 
                                                              
------------------------------------|----------------------------------| 
------------------------------------|----------------------------------| 
----------------9----------------9--|---------------9-----------5--9-9-| 
------7--9--10--------7-7-9--10-----|-----7--9--10--------7--9---------| 
--7-7--------------7----------------|--7---------------7---------------| 
------------------------------------|----------------------------------| 
                                                                        
------------------------------------|-----------------------------------| 
------------------------------------|-----------------------------------| 
---------------9-----------5--5--9--|---------------9---------------9-9-| 
-----7--9--10--------7--9-----------|-----7--9--10--------7--9--10------| 
--7---------------7-----------------|--7---------------7----------------| 
------------------------------------|-----------------------------------| 
                                                               
------------------------------------|-----------------------------------| 
------------------------------------|-----------------------------------| 
---------------9-----------5--5--9--|---------------9---------------9-9-| 
-----7--9--10--------7--9-----------|-----7--9--10--------7--9--10------| 
--7---------------7-----------------|--7---------------7----------------| 
------------------------------------|-----------------------------------| 
 
                                                                          
------------------------------------|-----------------------------------| 
------------------------------------|-----------------------------------| 
---------------9-----------5--5--9--|---------------9---------------9-9-| 
-----7--9--10--------7--9-----------|-----7--9--10--------7--9--10------| 
--7---------------7-----------------|--7---------------7----------------| 
------------------------------------|-----------------------------------| 
                                                       
-----------------------------------|---------------------------| 
-----------------------------------|--10----------10-------10--| 
---------------9----9--11--12--11--|--9-----------9--------9---| 
-----7--9--10----------------------|--7-----------7--------7---| 
--7------------7----7--9---10--9---|--------0--0--------0------| 
-----------------------------------|---------------------------| 

                                                        
-----------------------------|------------------------| 
-----10--------10------------|------------------------| 
-----9---------9-------------|------------------------| 
-----7---------7-------------|---------------6--------| 
--0------0--0--------0-0-0-0-|------------------------| 
-----------------------------|--4----4-4-4-4----------| 
                                                          
------------------10--------|---------------------------| 
------------------13b-------|--10----------10-------10--| 
----------------------------|--9-----------9--------9---| 
----------------------------|--7-----------7--------7---| 
----------------------------|--------0--0--------0------| 
--4-4-4-4-4-4-1-1-----------|---------------------------| 
                                                 
-----------------------------|------------------------| 
-----10--------10------------|------------------------| 
-----9---------9-------------|------------------------| 
-----7---------7-------------|---------------6--------| 
--0------0--0--------0-0-0-0-|------------------------| 
-----------------------------|--4----4-4-4-4----------| 
                                                 
--------------------10--------|------------------------| 
--------------------13b-------|------------------------| 
------------------------------|------------------------| 
------------------------------|--3----------3-------3--| 
------------------------------|--3----------3-------3--| 
--4--4--4--4--1--1------------|-------1--1-------1-----| 
                                               
---------------------------|------------------------| 
---------------------------|------------------------| 
---------------------------|------------------------| 
-----3--------3------------|---------------6--------| 
-----3--------3------------|------------------------| 
--1-----1--1-------1-1-1-1-|--4----4-4-4-4----------| 
                                                                 
------------------16--------|-----------------------|----------------------| 
------------------19b-------|-----------------------|----------------------| 
----------------------------|-----------------------|----------------------| 
----------------------------|--7----------7----9----|--10--------10/-------| 
----------------------------|-----------------------|----------------------| 
--4-4-4-4-4-4-1-1-----------|--5----5--5--5----7----|--8---------8/--------|
                                                           
-----------------------------|---------------------------| 
-----------------------------|---------------------------| 
------------------9----------|---------------------------| 
------------------9----------|-----------------2----2----| 
------------------9----------|-----------------2----2----| 
--7-7-7-7-7-7-7-7--------0-0-|--0----0----0--------------| 

 
Solo Kiko e Rafael 
                                          
----------------------------------------| 
----------------------------------------| 
-------7h9----7------7h9----7-----------| 
--7-10-----10---10-7-----10---10-9-7-10-| 
----------------------------------------| 
----------------------------------------|
                                          
----------------------------------------| 
----------------------------------------| 
-------7h9----7------7h9----7-----------| 
--7-10-----10---10-7-----10---10-9-7-10-| 
----------------------------------------| 
----------------------------------------| 
                                            
------------------------------------------| 
------------------------------------------| 
-------7h10----7------7h10----7-----------| 
--7-10------10---10-7------10---10-9-7-10-| 
------------------------------------------| 
------------------------------------------| 
                                                                               
------------------------------------------|----------------------------------| 
------------------------------------------|----------------------------------| 
-------7h10----7------7h10----7-----------|------5h7---5-----5h7---5---------| 
--7-10------10---10-7------10---10-9-7-10-|--5-9-----9---9-5-----9---9-7-5-9-| 
------------------------------------------|----------------------------------| 
------------------------------------------|----------------------------------| 
                                                                          
----------------------------------|------------------------------------| 
----------------------------------|------------------------------------| 
------4h5---4-----4h5---4---------|------5h8---5-----5h8---5-----------| 
--3-7-----7---7-3-----7---7-5-3-7-|--4-7-----7---7-4-----7---7-5-4h5h7-| 
----------------------------------|------------------------------------| 
----------------------------------|------------------------------------| 
                                                                           
--------------------------7-------|----------------------------------------| 
----------------------6h9---6h9h6-|----------------------------------------| 
------5h7---5-----5h7-------------|-------7h9----7------7h9----7-----------| 
--6-9-----9---9-6-----------------|--7-10-----10---10-7-----10---10-9-7-10-| 
----------------------------------|----------------------------------------| 
----------------------------------|----------------------------------------| 
                                          
----------------------------------------| 
----------------------------------------| 
-------7h9----7------7h9----7-----------| 
--7-10-----10---10-7-----10---10-9-7-10-| 
----------------------------------------| 
----------------------------------------| 
                                            
------------------------------------------| 
------------------------------------------| 
-------7h10----7------7h10----7-----------| 
--7-10------10---10-7------10---10-9-7-10-| 
------------------------------------------| 
------------------------------------------| 
                                    
------------------------------------------| 
------------------------------------------| 
-------7h10----7------7h10----7-----------| 
--7-10------10---10-7------10---10-9-7-10-| 
------------------------------------------| 
------------------------------------------| 
                                           
-------------------------------------------| 
-------------------------------------------| 
-------9h12----9------9h12----9------------| 
--9-12------12---12-9------12---12-10-9-12-| 
-------------------------------------------| 
-------------------------------------------| 
                                                    
--------------------------------------------------| 
--------------------------------------------------| 
-------10h13----10------10h13----10---------------| 
--9-12-------12----12-9-------12----12-11-9h11h12-| 
--------------------------------------------------| 
--------------------------------------------------| 
                                                  
-----------------------------------------------------| 
-----------------------------------------------------| 
--------12h14----12-------12h14----12----------------| 
--12-14-------14----14-12-------14----14-12-11h12h14-| 
-----------------------------------------------------| 
-----------------------------------------------------| 
                                                
--------------------------------------12----------| 
--------------------------------14h15----14h15h14-| 
--------12h14----12-------12h14-------------------| 
--11-14-------14----14-11-------------------------| 
--------------------------------------------------| 
--------------------------------------------------| 

Solo Kiko 
                                            
------------8h13h8-------------------8h13h| 
------------------------------------------| 
-------9h10--------10h9---------9h10------| 
------------------------------------------| 
--8h12------------------12h8h12-----------| 
------------------------------------------| 
                                         
--12-8h10----8---------------------------8-| 
-------------------------------------------| 
----------12---12-9h10----9---------9h12---| 
-------------------------------------------| 
-----------------------12---12h8h12--------| 
-------------------------------------------| 
                                              
--9h12h9------------------------------------| 
---------10h14h10------------------------10h| 
------------------9h14h9----------9h14h9----| 
-------------------------11h14h11-----------| 
--------------------------------------------| 
--------------------------------------------| 
                                                    
--------12h9h12h15h12h9h15h9h15h17h15h12h17h12h15/17/--| 
--14h10------------------------------------------------| 
-------------------------------------------------------| 
-------------------------------------------------------| 
-------------------------------------------------------| 
-------------------------------------------------------| 
                                      
------------8h13h8-------------------8h13h| 
------------------------------------------| 
-------9h10--------10h9---------9h10------| 
------------------------------------------| 
--8h12------------------12h8h12-----------| 
------------------------------------------| 
                                         
--12-8h10----8---------------------------8-| 
-------------------------------------------| 
----------12---12-9h10----9---------9h12---| 
-------------------------------------------| 
-----------------------12---12h8h12--------| 
-------------------------------------------| 
                                                               
--18-17-15---------------------------------------------------------| 
-----------18-17-15-14-15-17-15-14---------------------------------| 
-----------------------------------15-14-12----------------9-------| 
--------------------------------------------15-14-12-11-14---14-11-| 
-------------------------------------------------------------------| 
-------------------------------------------------------------------| 
                                         
-----------------------15h12----15/21------| 
--------14----17h14----------14------------| 
-----14----14-------14---------------------| 
--14---------------------------------------| 
-------------------------------------------| 
-------------------------------------------| 
                                      
------------8h13h8-------------------8h13-| 
------------------------------------------| 
-------9h10--------10h9---------9h10------| 
------------------------------------------| 
--8h12------------------12h8h12-----------| 
------------------------------------------| 
                                               
--------------11h16h11----------------------11h16-| 
--------------------------------------------------| 
--------12h13----------13h12----------12h13-------| 
--------------------------------------------------| 
--11h15----------------------15h11h15-------------| 
--------------------------------------------------| 
                                                
--------------14h16h19h14-16-14----14-------------| 
--------------------------------19----------------| 
--------15h16-------------------------18/20-18-18-| 
--------------------------------------------------| 
--14h18-------------------------------------------| 
--------------------------------------------------| 
                                              
------------------------------------------------| 
--15-14-------14--------------------------------| 
--------16-13----13-16-13-15-16-18-15-16-13-16/-| 
------------------------------------------------| 
------------------------------------------------| 
------------------------------------------------| 
                                        
--------------------------------------| 
--------------------------------------| 
--16--16-16/15-15-15/13-13-13/12------| 
--------------------------------------| 
--------------------------------------| 
--------------------------------------| 
                                             
-----------------------------------------------| 
-----------------------------------------------| 
--15--13-12------------------------------------| 
------------14-13-11---------------------------| 
---------------------14-13-11-10-13-11-10~-----| 
-----------------------------------------------|
                                                    
-----------------------------------------------------| 
-----------------------------------------------------| 
-----------------------------------------------------| 
-----------------9-8-9-8-6-11-9-11-9-8-13-11-13-11-9-| 
--13-11-13-11-10-------------------------------------| 
-----------------------------------------------------| 
                                                                                 
-----------------------------------9h11h14h16h14h11-14--|--19b-------19b-------| 
--------------------------11-12-14----------------------|----------------------| 
--------------------11-13-------------------------------|----------------------| 
-----------11-13-16-------------------------------------|----------------------| 
--11-14-16----------------------------------------------|----------------------| 
--------------------------------------------------------|----------------------| 
                                                                                 
--21b-------21b-------|------------------|------------------|------------------| 
----------------------|------------------|------------------|------------------| 
----------------------|------------------|------------------|------------------| 
----------------------|------------------|------------------|------------------| 
----------------------|------------------|------------------|------------------| 
----------------------|------------------|------------------|------------------|  
                                                                         
--------------------|------------------------------|-------------------| 
--------------------|------------------------------|-------------------| 
--------------------|------------------------------|-------------------| 
----------9--10--7--|--9-9----9-9----9-9----9-9----|--9-9----9--10--7--| 
----------7--8---5--|--7-7----7-7----7-7----7-7----|--7-7----7--8---5--| 
----------7--8---5--|------0------0------0------0--|------0--7--8---5--| 
                                                         
------------------------------|--------------------------| 
------------------------------|--------------------------| 
------------------------------|--------------------------| 
--9-9----9-9----9-9----9-9----|--9-9----9-9----9--10--7--| 
--7-7----7-7----7-7----7-7----|--7-7----7-7----7--8---5--| 
------0------0------0------0--|------0------0--7--8---5--| 
                                                        
---------------------------|-------------------------| 
---------------------------|-------------------------| 
---------------------------|-------------------------| 
--9-9----9-9----9-9----9-9-|--9-----7----------------| 
--7-7----7-7----7-7----7-7-|--7-----5----------------| 
------0------0------0------|--7--0--5----------------| 
                                                
----------------------------------------------------| 
----------------------------------------------------| 
----------------------------------------------------| 
--9------8------9----------8------9----------9--10--| 
--7--7-7-7--7-7-7--7-7-7-7-7--7-7-7--7-7-7-7-7--7---| 
----------------------------------------------------|  
                                                      
----------------------------------------------------| 
----------------------------------------------------| 
----------------------------------------------------| 
--9------7------9----------8------9----------9--10--| 
--6--6-6-6--6-6-6--6-6-6-6-6--6-6-6--6-6-6-6-6--6---| 
----------------------------------------------------|  
                                                                          
------------------------------------------------------------------------| 
------------------------------------------------------------------------| 
------------------------------------------------------------------------| 
--12--------11--------12--------------11--------12--------------12--12--| 
--12--------12--------12--------------12--------12--------------12--12--| 
--10--10-10-10--10-10-10--10-10-10-10-10--10-10-10--10-10-10-10-10--10--| 
                                                                          
----------------------------------------|-------------------|------------------| 
----------------------------------------|-------------------|------------------| 
----------------------------------------|--7----------------|------------------| 
--10--------10--------5--------5--------|--7----------------|------------------| 
--10--------10--------5--------5--------|--5----------------|------------------| 
--8---8--8--8---8--8--3--3--3--3--3--3--|-------------------|------------------| 
                                                                            
-------------------|-------------------|-------------------|-------------------| 
-------------------|-------------------|-------------------|-------------------| 
--5----------------|--2----------------|-------------------|-------------------| 
--5----------------|--2----------------|--5----------------|--4----------------| 
--3----------------|--0----------------|--5----------------|--2----------------| 
-------------------|-------------------|--3----------------|-------------------| 
                                                                             
----------------------------------|-------------------|-------------------| 
----------------------------------|-------------------|-------------------| 
----------------------------------|-------------------|--2----------------| 
----------------------------------|--2----------------|--2----------------| 
--2-3-3-3-3-3-2-3-3-3-3-3-2-3-3-3-|--2----------------|--0----------------| 
----------------------------------|--0----------------|-------------------| 
                                                             
-------------------|-------------------|-------------------| 
-------------------|-------------------|-------------------| 
-------------------|-------------------|--5----------------| 
--5----------------|--4----------------|--5----------------| 
--5----------------|--2----------------|--3----------------| 
--3----------------|-------------------|-------------------| 
                                                                           
----------------------------------|-------------------|------------------| 
----------------------------------|-------------------|------------------| 
----------------------------------|-------------------|------------------| 
----------------------------------|--7----------------|------------------| 
--5-7-7-7-7-7-5-7-7-7-7-7-5-7-7-7-|--7----------------|------------------| 
----------------------------------|--5----------------|------------------| 
                                                                    
----------------------|--------------------|----------------------| 
----------------------|--------------------|----------------------| 
--12--------11--------|--9--------7--------|--12--------11--------| 
----------------------|--------------------|----------------------| 
--10--------9---------|--7--------5--------|--10--------9---------| 
----------------------|--------------------|----------------------| 
                                                                  
--------------------|----------------------|--------------------| 
--------------------|----------------------|--------------------| 
--9--------7--------|--12--------11--------|--9--------7--------| 
--------------------|----------------------|--------------------| 
--7--------5--------|--10--------9---------|--7--------5--------| 
--------------------|----------------------|--------------------| 
                                                                           
-------------------|------------------|-------------------|------------------| 
-------------------|------------------|-------------------|------------------| 
--6----------------|------------------|--5----------------|------------------| 
-------------------|------------------|-------------------|------------------| 
--4----------------|------------------|--3----------------|------------------| 
-------------------|------------------|-------------------|------------------| 
                                                               
---------------------|-------------------|------------------|| 
---------------------|-------------------|------------------|| 
---------------------|-------------------|------------------|| 
--5------------------|--9----------------|------------------|| 
--5------------------|-------------------|------------------|| 
--3--------------3-3-|--7----------------|------------------||
exibições 4.528
Acordes para:
    Composição: Bittencourt / Kiko Loureiro Colaboração e revisão:
    • Raisa Barbara

    0 comentários

    mostrar mais comentários

    Conseguiu tocar?

    0 tocaram 0 ainda não

    Grave um vídeo tocando Winds Of Destination e mande pra gente!

    00:00 / 00:00
    outros vídeos desta música
    repetir qualidade Automático
    Outros vídeos desta música
    00:00 / 00:00
    Automático
    OK