Cifra Club

Aprenda

Wings Of Reality

Angra

Cifra: Principal (violão e guitarra)
tom: F#
Solo de Introdução

Guitarra c/ Overdrive:
E||--16--------17----16----|--14----------14--------|
B||------------------------|----------16------------|
G||------------------------|------------------------|
D||------------------------|------------------------|
A||------------------------|------------------------|
E||------------------------|------------------------|
                                                      
----------------14----|--15------17--15--14----------|
----------17----------|------------------------15----|
----------------------|------------------------------|
----------------------|------------------------------|
----------------------|------------------------------|
----------------------|------------------------------|
                                                      
----------16----17----16----|--14----------14--------|
----------------------------|----------16------------|
----------------------------|------------------------|
----------------------------|------------------------|
----------------------------|------------------------|
----------------------------|------------------------|
     
--15------17--15----14----12----|--12~---------------|
--------------------------------|--------------------|
--------------------------------|--------------------|
--------------------------------|--------------------|
--------------------------------|--------------------|
--------------------------------|--------------------|

Guitarra c/ Distorção:
E||------------12----------|------------------------|
B||--12--------------------|----------12--12--------|
G||------------------13----|--11--------------------|
D||------------------------|------------------------|
A||------------------------|------------------------|
E||------------------------|------------------------|
                                                      
----------------10----|----------10------------------|
----------13----------|--12----------12--10----10----|
----------------------|------------------------------|
----------------------|------------------------------|
----------------------|------------------------------|
----------------------|------------------------------|                                                     
----------------12---------|------------------------|
----------12----------9----|----------12--12--------|
---------------------------|--11--------------------|
---------------------------|------------------------|
---------------------------|------------------------|
---------------------------|------------------------|
         
--------------10----------------|--------------------|
--13------13--------10----13----|--12~---------------|
--------------------------------|--------------------|
--------------------------------|--------------------|
--------------------------------|--------------------|
--------------------------------|--------------------|

Guitarra Ritmica c/ Distorção:
E||-------------------|-------------------|
B||-------------------|-------------------|
G||-------------------|--4----------------|
D||--2----------------|--4----------------|
A||--2----------------|--2----------------|
E||--0----------------|-------------------|
                                                             
-------------------|--------------------|-------------------|
-------------------|--------------------|-------------------|
--5----------------|--------------------|-------------------|
--5----------------|--5--------7--------|--2----------------|
--3----------------|--5--------7--------|--2----------------|
-------------------|--3--------5--------|--0----------------|
                 
-------------------|--------------------|-------------------|
-------------------|--------------------|-------------------|
--4----------------|--5--------7--------|-------------------|
--4----------------|--5--------7--------|--2----------------|
--2----------------|--3--------5--------|--2----------------|
-------------------|--------------------|--0----------------|

Daqui pra frente , segue a guitarra ritimica com distorção , nos versos e no refrão...

Versos

|--------------------------------|
|----------------------------8---|
|----------------------------7---|
|----------------------------5---|
|--5-------------------------5---|
|----0-0-0-0-0-0-0-0-0-0-0-0-----|
                                                                  
-------------------------------|----------------------------------|
--7----------------------------|----------------------------------|
--7----------------------------|----------------------------------|
--4----------------------------|----------------------------------|
--5----5-5-5-5-5-5-5-5-5-5-5-5-|----------------------------------|
-------------------------------|--3-2-3-5-7-5-3-2-3-2-3-5-7-5-3-2-|
                                                  
--------------------------------------------------|
--------------------------------------------------|
--------------------------------------------------|
--------------------------------------------------|
--7-5-3-------5-3-2-------3-2-0-----------------5-|
--------7-5-3-------5-3-2-------3-2-0-7-5-3-2-0---|
                                                                  
---------------------------------|--------------------------------|
---------------------------------|--------------------------------|
----------------------------12---|--11----------------------------|
----------------------------12---|--12----------------------------|
--5------------------------------|--------5-5-5-5-5-5-5-5-5-5-5-5-|
----0-0-0-0-0-0-0-0-0-0-0-0------|--------------------------------|
                                                              
----------------------------------|---------------------------|
----------------------------------|---------------------------|
----------------------------------|---------------------------|
----------------------------------|------------------4--------|
--4-4-4-4-4-4-4-4-4-4-4-4-4-4-4-4-|--2-2-2-2-2-2-2-2-2--------|
----------------------------------|---------------------------|
                                                                
--------------------------------|-------------------------------|
----------------------------8---|--7----------------------------|
----------------------------7---|--7----------------------------|
----------------------------5---|--4----------------------------|
--5-------------------------5---|--5----5-5-5-5-5-5-5-5-5-5-5-5-|
----0-0-0-0-0-0-0-0-0-0-0-0-----|-------------------------------|
   
-------------------|----------------------------------|
-------------------|----------------------------------|
-------------------|----------------------------------|
--7----------------|----------------------------------|
--7----------------|--2-2-2-2-2-2-2-2-4-4-4-4-4-4-4-4-|
--5----------------|----------------------------------|
                                                                     
----------------------------------|----------------------------------|
----------------------------------|----------------------------------|
----------------------------------|----------------------------------|
----------------------------------|--7-7-7-7-7-7-7-7-9-9-9-9-9-9-9-9-|
--5-5-5-5-5-5-5-5-7-7-7-7-7-7-7-7-|----------------------------------|
----------------------------------|----------------------------------|
                                                       
--------------------|----------------------------------|
--------------------|----------------------------------|
--------------------|----------------------------------|
--------------------|----------------------------------|
--7--------8--------|--2-2-2-2-2-2-2-2-4-4-4-4-4-4-4-4-|
--5--------6--------|----------------------------------|
      
----------------------------------|----------------------------------|
----------------------------------|----------------------------------|
----------------------------------|----------------------------------|
----------------------------------|--7-7-7-7-7-7-7-7-9-9-9-9-9-9-9-9-|
--5-5-5-5-5-5-5-5-7-7-7-7-7-7-7-7-|----------------------------------|
----------------------------------|----------------------------------|
                 
-------------------|
-------------------|
-------------------|
--7----------------|
--7----------------|
--5----------------|

Refrão

|-------------------|-------------------|-------------------|
|-------------------|-------------------|-------------------|
|-------------------|-------------------|-------------------|
|--2----------------|--9----------------|--5----------------|
|--2----------------|--9----------------|--5----------------|
|--0----------------|--7----------------|--3----------------|
                                                            
-------------------|-------------------|-------------------|
-------------------|-------------------|-------------------|
--7----------------|-------------------|--5----------------|
--7----------------|--2----------------|--5----------------|
--5----------------|--2----------------|--3----------------|
-------------------|--0----------------|-------------------|
                                                                   
---------------------------|-------------------|-------------------|
---------------------------|-------------------|-------------------|
--4------------------------|-------------------|-------------------|
--4------------------------|--2----------------|--9----------------|
--2--------2-2-2-2-2-2-2-2-|--2----------------|--9----------------|
---------------------------|--0----------------|--7----------------|
                                                            
-------------------|--------------------|-------------------|
-------------------|--------------------|-------------------|
--5----------------|-----------7--------|-------------------|
--5----------------|--5--------7--------|--2----------------|
--3----------------|--5--------5--------|--2----------------|
-------------------|--3-----------------|--0----------------|
                                                             
-------------------|--------------------|-------------------|
-------------------|--------------------|-------------------|
-------------------|--5--------7--------|-------------------|
--9----------------|--5--------7--------|--2----------------|
--9----------------|--3--------5--------|--2----------------|
--7----------------|--------------------|--0----------------|
                                                            
-------------------|-------------------|-------------------|
-------------------|-------------------|-------------------|
-------------------|--4----------------|--5----------------|
--2----------------|--4----------------|--5----------------|
--2----------------|--2----------------|--3----------------|
--0----------------|-------------------|-------------------|
                                                             
--------------------|-------------------|-------------------|
--------------------|-------------------|-------------------|
--------------------|-------------------|--4----------------|
--5--------7--------|--2----------------|--4----------------|
--5--------7--------|--2----------------|--2----------------|
--3--------5--------|--0----------------|-------------------|
          
--------------------|-------------------|-------------------|
--------------------|-------------------|-------------------|
--5--------7--------|-------------------|-------------------|
--5--------7--------|--2----------------|-------------------|
--3--------5--------|--2----------------|-------------------|
--------------------|--0----------------|--0/---------------|

Aí depois desse refrão , o vocal acompanha um solinho de teclado , junto com uma string...
Depois a guitarra ritimica com distorção volta e acompanha um solo de teclado c/ string..

Base do Solo de Teclado c/ String

|-------------------|------------------|
|-------------------|------------------|
|--4----------------|------------------|
|--4----------------|------------------|
|--2----------------|------------------|
|-------------------|------------------|
                                                                       
------------------------------------|----------------------------------|
------------------------------------|----------------------------------|
------------------------------------|----------------------------------|
------------------------------------|----------------------------------|
------------7----------------7------|------------7--------------7------|
--5--5-5-5--5------5--5-5-5--5------|--5--5-5-5--5------5----5--5------|
                                                                       
------------------------------------|----------------------------------|
------------------------------------|----------------------------------|
------------------------------------|----------------------------------|
------------------------------------|----------------------------------|
------------7----------------7------|------------7--------------7------|
--5--5-5-5--5------5--5-5-5--5------|--5--5-5-5--5------5----5--5------|
                                                                        
------------------------------------|----------------------------------|
------------------------------------|----------------------------------|
------------------------------------|----------------------------------|
------------------------------------|----------------------------------|
------------3----------------3------|------------2--------------2------|
--1--1-1-1--1------1--1-1-1--1------|--0--0-0-0--0------0----0--0------|
                                                                           
------------------------------------|-------------------------------------|
------------------------------------|-------------------------------------|
------------8----------------8------|-------------------------------------|
------------6----------------6------|-------------------------------------|
--6--6-6-6---------6--6-6-6---------|------------2------------------------|
------------------------------------|--0--0-0-0--0------0--0--0--0--0--0--|
                                                                        
------------------------------------|----------------------------------|
------------------------------------|----------------------------------|
------------------------------------|----------------------------------|
------------------------------------|----------------------------------|
------------3----------------3------|------------2--------------2------|
--1--1-1-1--1------1--1-1-1--1------|--0--0-0-0--0------0----0--0------|
                                                                           
------------------------------------|-------------------------------------|
------------------------------------|-------------------------------------|
------------7----------------7------|------------7------------------------|
------------7----------------7------|------------7------------------------|
--5--5-5-5---------5--5-5-5---------|--5--5-5-5---------5--5--5--5--5--5--|
------------------------------------|-------------------------------------|

Agora entra o solo das 2 guitarras junto com o teclado...

Guitarra Ritmica c/ Distorção

--------------------------------------|--------------------------------------|
--------------------------------------|--------------------------------------|
--------------------------------------|--------------------------------------|
--------------------------------------|--------------------------------------|
--------------------------------------|--------------------------------------|
--5--5--5--5--5--5--5--5--5--5--5--5--|--5--5--5--5--5--5--5--5--5--5--5--5--|
                                                                              
--------------------------------------|--------------------------------------|
--------------------------------------|--------------------------------------|
--------------------------------------|--------------------------------------|
--------------------------------------|--------------------------------------|
--------------------------------------|--------------------------------------|
--5--5--5--5--5--5--5--5--5--5--5--5--|--5--5--5--5--5--5--5--5--5--5--5--5--|
                                                                             
--------------------------------------|--------------------------------------|
--------------------------------------|--------------------------------------|
--------------------------------------|--------------------------------------|
--------------------------------------|--------------------------------------|
--------------------------------------|--------------------------------------|
--1--1--1--1--1--1--1--1--1--1--1--1--|--0--0--0--0--0--0--0--0--0--0--0--0--|
                                                                              
--------------------------------------|--------------------------------------|
--------------------------------------|--------------------------------------|
--------------------------------------|--------------------------------------|
--------------------------------------|--------------------------------------|
--6--6--6--6--6--6--6--6--6--6--6--6--|--------------------------------------|
--------------------------------------|--0--0--0--0--0--0--0--0--0--0--0--0--|
                                                                             
--------------------------------------|--------------------------------------|
--------------------------------------|--------------------------------------|
--------------------------------------|--------------------------------------|
--------------------------------------|--------------------------------------|
--------------------------------------|--------------------------------------|
--1--1--1--1--1--1--1--1--1--1--1--1--|--3--3--3--3--3--3--3--3--3--3--3--3--|
                                                                        
--------------------------------------|--------------------------------|
--------------------------------------|--------------------------------|
--------------------------------------|--------------------------------|
--------------------------------------|--4----4----4----4----4----4----|
--------------------------------------|--2----2----2----2----2----2----|
--5--5--5--5--5--5--5--5--5--5--5--5--|--------------------------------|
                                                                     
--------------------|---------------------------|--------------------|
--------------------|---------------------------|--------------------|
--------------------|---------------------------|--------------------|
--9--------7--------|--5------------------------|--5--------4--------|
--7--------5--------|--5------------------------|--3--------2--------|
--------------------|--3--------3-3-3-3-3-3-3-3-|--------------------|
                                                                     
--------------------|--------------------|---------------------------|
--------------------|--------------------|---------------------------|
--------------------|--------------------|---------------------------|
-----------4--------|--9--------7--------|--5------------------------|
--7--------2--------|--7--------5--------|--5------------------------|
--5-----------------|--------------------|--3--------3-3-3-3-3-3-3-3-|
                                                                     
--------------------|---------------------------|-------------------|
--------------------|---------------------------|-------------------|
--------------------|---------------------------|-------------------|
--5--------4--------|---------------------------|-------------------|
--3--------2--------|--7------------------------|--9----------------|
--------------------|--5--------5-5-5-5-5-5-5-5-|--7----------------|
                                                                          
------------------------|------------------------|------------------------|
------------------------|------------------------|------------------------|
------------------------|------------------------|------------------------|
--10--------------10----|------------10----12----|--10--------------10----|
----------10------------|----10------------------|----------10------------|
------------------------|------------------------|------------------------|
                                                          
------------------------|
------------------------|
------------------------|
------------10----12----|
----10------------------|
------------------------|

Guitarra c/ Overdrive

|--------------------------12--10------|
|--------13--12--10----------------13--|
|--------------------------------------|
|--------------------------------------|
|--------------------------------------|
|--------------------------------------|
                                           
-------------------------------------------|
--------13--12--10--15--13--12--10---------|
------------------------------------12--9--|
-------------------------------------------|
-------------------------------------------|
-------------------------------------------|
                                      
--------------------------12--10--12--|
--------13--12--10--------------------|
--------------------------------------|
--------------------------------------|
--------------------------------------|
--------------------------------------|
                                           
-------------------------------------------|
--------13--12--10--15--13--12--10---------|
------------------------------------12--9--|
-------------------------------------------|
-------------------------------------------|
-------------------------------------------|
                                      
--------------------------12--10------|
--------13--12--10----------------13--|
--------------------------------------|
--------------------------------------|
--------------------------------------|
--------------------------------------|
                                           
-------------------------------------------|
--------13--12--10--15--13--12--10---------|
------------------------------------12--9--|
-------------------------------------------|
-------------------------------------------|
-------------------------------------------|
                                      
--------------------------11--10------|
--------13--12--10----------------13--|
--------------------------------------|
--------------------------------------|
--------------------------------------|
--------------------------------------|
                                           
-------------------------------------------|
--------13--12--10--15--13--12--10---------|
------------------------------------12--9--|
-------------------------------------------|
-------------------------------------------|
-------------------------------------------|
                                      
--------------------------12--10------|
--------13--12--10----------------13--|
--------------------------------------|
--------------------------------------|
--------------------------------------|
--------------------------------------|
                                                                 
-------------------------------------------|--------------------|
--------13--12--13--15--13--12--10---------|--10~---------------|
------------------------------------12--9--|--------------------|
-------------------------------------------|--------------------|
-------------------------------------------|--------------------|
-------------------------------------------|--------------------|

Guitarra c/ Ditorção

|--------12----------------15--13--12--|
|------------15--13--------------------|
|--------------------------------------|
|--------------------------------------|
|--------------------------------------|
|--------------------------------------|
                                             
--------------------------------------------|
--------13--12------15--13--12--------------|
----------------14--------------14--12------|
----------------------------------------14--|
--------------------------------------------|
--------------------------------------------|
                                       
--------12----------------15--13--15--|
------------15--13--------------------|
--------------------------------------|
--------------------------------------|
--------------------------------------|
--------------------------------------|
                                          
--------------------------------------------|
--------13--12------15--13--12--------------|
----------------14--------------14--12------|
----------------------------------------14--|
--------------------------------------------|
--------------------------------------------|
                                      
--------12----------------15--13--12--|
------------15--13--------------------|
--------------------------------------|
--------------------------------------|
--------------------------------------|
--------------------------------------|
                                            
--------------------------------------------|
--------13--12------15--13--12--------------|
----------------14--------------14--12------|
----------------------------------------14--|
--------------------------------------------|
--------------------------------------------|
                                      
--------------------------15--13--11--|
--------16--15--13--------------------|
--------------------------------------|
--------------------------------------|
--------------------------------------|
--------------------------------------|
                                              
--12------------------------------------------|
----------13--12------15--13--12--------------|
------------------14--------------14--12------|
------------------------------------------14--|
----------------------------------------------|
----------------------------------------------|
                                       
--------12----------------15--13--12--|
------------15--13--------------------|
--------------------------------------|
--------------------------------------|
--------------------------------------|
--------------------------------------|
                                                                      
--------12------12--13--12-13-12-----------------|--------------------|
------------15-------------------15--13--12------|--------------------|
---------------------------------------------12--|--14----------------|
-------------------------------------------------|--------------------|
-------------------------------------------------|--------------------|
-------------------------------------------------|--------------------|

Depois vem o solo rapido da guitarra overdrive..ainda com a base da guiatrra ritmica c/ distorção

SOLO

--------------------------------------------------------------14h17h14-------17h
--------------------------------13h16h13-------17h19h17-------------------------
--11h14h11-------14h17h14-------------------------------------------------------
-----------14-14----------14-14----------14-14----------14-14----------14-14----
--------------------------------------------------------------------------------
--------------------------------------------------------------------------------
                                                                               
----------------------------|--19-------17-------15-12-14----------------------|
--19b-----19-17-19------17--|-----17-15----15-12----------15-17----15----------|
----------------------------|-----------------------------------17----14-16-14-|
----------------------------|--------------------------------------------------|
----------------------------|--------------------------------------------------|
----------------------------|--------------------------------------------------|
                                                                             
------------------------------------------------|----------------------------|
------------------------------------------------|----------------------------|
---12-14-12-------12----12-11-------------------|----------12-11-------------|
------------14-12----14-------12-16-14----14-12-|--14b-----------14------14--|
---------------------------------------15-------|----------------------------|
------------------------------------------------|----------------------------|
                                                
--------------------------------------------------|
--------------------------------------------------|
--12-16----12-14-12-12-12-11-------12-16----12-17-|
--------14-------------------12-14-------14-------|
--------------------------------------------------|
--------------------------------------------------|
                                                                          
--------------------------19----12-17-------15----|-----------------------|
--12-------------12-15-17----15-------15-17----17-|--15b-----15-----------|
-----12----12-14----------------------------------|-----------------------|
--------14----------------------------------------|-----------------------|
--------------------------------------------------|-----------------------|
--------------------------------------------------|--------------------0/-|
                           
--------------------------|
--13b---13----10--12------|
--------------------------|
--------------------------|
--------------------------|
--------------------------|
                                                                               
--------------------------------------------------------------------------------
--------------7-7-7-7-7-7-8-8-8-8-10-10-10-10-10-10-12-12-12-12-12-12-15-15-15-1
--9-9-9-9-9-9-------------------------------------------------------------------
--------------------------------------------------------------------------------
--------------------------------------------------------------------------------
--------------------------------------------------------------------------------
                                                                             
--------------15-17----------------------15-19-15----19----17-19-15----------|
-----15-17-17-------17-17----15-17h19h17----------17----17----------17-17----|
--17----------------------17----------------------------------------------16-|
-----------------------------------------------------------------------------|
-----------------------------------------------------------------------------|
-----------------------------------------------------------------------------|
                                                                              
-----------15-19-15----19-15-17h19h17-15----------17h19h17-22-22-17----22-17-|
--15-19-17----------17-------------------15-17-19-------------------19-------|
-----------------------------------------------------------------------------|
-----------------------------------------------------------------------------|
-----------------------------------------------------------------------------|
-----------------------------------------------------------------------------|
                                                                              
--------------------------------------------------------------------------17-|
--19----19----------------------------------------------------15-17-15-17----|
-----19----19----------------------------------------16-14-16----------------|
--------------19-16-17h19h17-16----------------16-17-------------------------|
--------------------------------17-14----14-17-------------------------------|
--------------------------------------15-------------------------------------|
                                                               
--17-22-------------------------------------|
--------------------------------------------|
--------16----19----------------------------|
-----------19-----16--19--------------------|
--------------------------17--19------14/---|
----------------------------------15--------|

Depois disso volta o verso com a guitarra ritmica com distorção...

Guitarra Ritmica c/ Distorção

|--------------------------------|
|----------------------------8---|
|----------------------------7---|
|--0-------------------------5---|
|----------------------------5---|
|----0-0-0-0-0-0-0-0-0-0-0-0-----|
                                                                  
-------------------------------|----------------------------------|
--7----------------------------|----------------------------------|
--7----------------------------|----------------------------------|
--4----------------------------|----------------------------------|
--5----5-5-5-5-5-5-5-5-5-5-5-5-|----------------------------------|
-------------------------------|--3-2-3-5-7-5-3-2-3-2-3-5-7-5-3-2-|
                                                   
--------------------------------------------------|
--------------------------------------------------|
--------------------------------------------------|
--------------------------------------------------|
--7-5-3-------5-3-2-------3-2-0-----------------5-|
--------7-5-3-------5-3-2-------3-2-0-7-5-3-2-0---|
                                                                  
---------------------------------|--------------------------------|
---------------------------------|--------------------------------|
----------------------------12---|--11----------------------------|
----------------------------12---|--12----------------------------|
--5------------------------------|--------5-5-5-5-5-5-5-5-5-5-5-5-|
----0-0-0-0-0-0-0-0-0-0-0-0------|--------------------------------|
                                                              
----------------------------------|---------------------------|
----------------------------------|---------------------------|
----------------------------------|---------------------------|
----------------------------------|------------------4--------|
--4-4-4-4-4-4-4-4-4-4-4-4-4-4-4-4-|--2-2-2-2-2-2-2-2-2--------|
----------------------------------|---------------------------|
                                                                 
--------------------------------|-------------------------------|
----------------------------8---|--7----------------------------|
----------------------------7---|--7----------------------------|
----2-2-2-2-2-2-2-2-2-2-2-2-5---|--4----------------------------|
--5-------------------------5---|--5----5-5-5-5-5-5-5-5-5-5-5-5-|
----0-0-0-0-0-0-0-0-0-0-0-0-----|-------------------------------|
                                                                         
-------------------|----------------------------------|
-------------------|----------------------------------|
-------------------|----------------------------------|
--7----------------|----------------------------------|
--7----------------|--2-2-2-2-2-2-2-2-4-4-4-4-4-4-4-4-|
--5----------------|----------------------------------|
                                                                     
----------------------------------|----------------------------------|
----------------------------------|----------------------------------|
----------------------------------|----------------------------------|
----------------------------------|--7-7-7-7-7-7-7-7-9-9-9-9-9-9-9-9-|
--5-5-5-5-5-5-5-5-7-7-7-7-7-7-7-7-|----------------------------------|
----------------------------------|----------------------------------|
                                                       
--------------------|----------------------------------|
--------------------|----------------------------------|
--------------------|----------------------------------|
--------------------|----------------------------------|
--7--------8--------|--2-2-2-2-2-2-2-2-4-4-4-4-4-4-4-4-|
--5--------6--------|----------------------------------|
                                                                      
----------------------------------|----------------------------------|
----------------------------------|----------------------------------|
----------------------------------|----------------------------------|
----------------------------------|--7-7-7-7-7-7-7-7-9-9-9-9-9-9-9-9-|
--5-5-5-5-5-5-5-5-7-7-7-7-7-7-7-7-|----------------------------------|
----------------------------------|----------------------------------|
                                                                                
-------------------|
-------------------|
-------------------|
--7----------------|
--7----------------|
--5----------------|

Depois volta o refrão

Refrão

|-------------------|-------------------|-------------------|
|-------------------|-------------------|-------------------|
|-------------------|--4----------------|-------------------|
|--2----------------|--4----------------|--5----------------|
|--2----------------|--2----------------|--5----------------|
|--0----------------|-------------------|--3----------------|
                                                           
-------------------|-------------------|-------------------|
-------------------|-------------------|-------------------|
--7----------------|-------------------|--5----------------|
--7----------------|--2----------------|--5----------------|
--5----------------|--2----------------|--3----------------|
-------------------|--0----------------|-------------------|
                                                                   
---------------------------|-------------------|-------------------|
---------------------------|-------------------|-------------------|
---------------------------|-------------------|--4----------------|
--4------------------------|--2----------------|--4----------------|
--2--------2-2-2-2-2-2-2-2-|--2----------------|--2----------------|
---------------------------|--0----------------|-------------------|
                                                            
-------------------|--------------------|-------------------|
-------------------|--------------------|-------------------|
--5----------------|-----------7--------|-------------------|
--5----------------|--5--------7--------|--2----------------|
--3----------------|--5--------5--------|--2----------------|
-------------------|--3-----------------|--0----------------|
                                                             
-------------------|--------------------|-------------------|
-------------------|--------------------|-------------------|
--4----------------|--5--------7--------|-------------------|
--4----------------|--5--------7--------|--2----------------|
--2----------------|--3--------5--------|--2----------------|
-------------------|--------------------|--0----------------|
                                                           
-------------------|-------------------|-------------------|
-------------------|-------------------|-------------------|
-------------------|--4----------------|--5----------------|
--2----------------|--4----------------|--5----------------|
--2----------------|--2----------------|--3----------------|
--0----------------|-------------------|-------------------|
                                                            
--------------------|-------------------|-------------------|
--------------------|-------------------|-------------------|
--------------------|-------------------|--4----------------|
--5--------7--------|--2----------------|--4----------------|
--5--------7--------|--2----------------|--2----------------|
--3--------5--------|--0----------------|-------------------|
                                                           
--------------------|-------------------|
--------------------|-------------------|
--5--------7--------|-------------------|
--5--------7--------|--2----------------|
--3--------5--------|--2----------------|
--------------------|--0----------------|

Introdução

Guitarra Ritmica c/ Distorção

|-------------------|
|-------------------|
|-------------------|
|--2----------------|
|--2----------------|
|--0----------------|
                                                             
-------------------|-------------------|--------------------|
-------------------|-------------------|--------------------|
--4----------------|--5----------------|--------------------|
--4----------------|--5----------------|--5--------7--------|
--2----------------|--3----------------|--5--------7--------|
-------------------|-------------------|--3--------5--------|
                                                            
-------------------|-------------------|--------------------|
-------------------|-------------------|--------------------|
-------------------|--4----------------|--5--------7--------|
--2----------------|--4----------------|--5--------7--------|
--2----------------|--2----------------|--3--------5--------|
--0----------------|-------------------|--------------------|
                                                           
-------------------||
-------------------||
-------------------||
--2----------------||
--2----------------||
--0----------------||

Guitarra c/ Overdrive

|--16--------17----16----|
|------------------------|
|------------------------|
|------------------------|
|------------------------|
|------------------------|
                                                                              
--14----------14--------|----------12----14----|--15------17--15--14----------|
----------16------------|----------------------|------------------------15----|
------------------------|----------------------|------------------------------|
------------------------|----------------------|------------------------------|
------------------------|----------------------|------------------------------|
------------------------|----------------------|------------------------------|
                                                     
----------16----17----16----|--14----------14--------|
----------------------------|----------16------------|
----------------------------|------------------------|
----------------------------|------------------------|
----------------------------|------------------------|
----------------------------|------------------------|
                                                                         
--15------17--15----14----12----|--12~---------------||
--------------------------------|--------------------||
--------------------------------|--------------------||
--------------------------------|--------------------||
--------------------------------|--------------------||
--------------------------------|--------------------||

Guitarra c/ Distorção

|------------12---------|
|--12--------------9----|
|-----------------------|
|-----------------------|
|-----------------------|
|-----------------------|
                                                                              
------------------------|----------------10----|----------10------------------|
----------12--12--------|----------13----------|--12----------12--10----10----|
--11--------------------|----------------------|------------------------------|
------------------------|----------------------|------------------------------|
------------------------|----------------------|------------------------------|
------------------------|----------------------|------------------------------|
                                                   
----------------12---------|------------------------|
----------12----------9----|----------12--12--------|
---------------------------|--11--------------------|
---------------------------|------------------------|
---------------------------|------------------------|
---------------------------|------------------------|
                                                                         
--------------10----------------|--------------------||
--13------13--------10----13----|--12~---------------||
--------------------------------|--------------------||
--------------------------------|--------------------||
--------------------------------|--------------------||
--------------------------------|--------------------||

Trancrita por Darksk8er
Composição de Andre Matos
Colaboração e revisão:
  • Aloysio Guilherme
9.506 exibições
    • ½ Tom
    • A
    • Bb
    • B
    • C
    • Db
    • D
    • Eb
    • E
    • F
    • F#
    • G
    • Ab
  • Adicionar à lista

    0 comentários

    Ver todos os comentários

    Conseguiu tocar?

    0 Tocaram 0 Ainda não

    Grave um vídeo tocando Wings Of Reality e nos envie!

    00:00 / 00:00
    outros vídeos desta música
    repetir qualidade Automático
    Outros vídeos desta música
    00:00 / 00:00
    Automático

    Cifra Club Pro

    Aproveite o Cifra Club com benefícios exclusivos e sem anúncios
    Cifra Club Pro
    Aproveite o Cifra Club com benefícios exclusivos e sem anúncios
    OK