Cifra Club

Aprenda

Wishing Well (versão 2)

Angra

Cifra: Principal (violão e guitarra)
tom: G
G                Cadd9       G
Close your eyes, what do you see?
Bb      F    C     G
Takes a while to believe
G             Cadd9        G
Feel the wind kissing your chin
Bb        F     C         G
Hold your cries make your wish
Am    G     Am
Dream away, breath...

Bm         A       F#m    D/F#  C
Why did it take so long to understand?
Bm          A      F#m        D/F#    C
Black sheep of the flock will soon be banned
Am    G          F  G           (Em D C - Am Bm C D)
Don't loose your hope, wish away

 G                               D4   D
(Journey to the sacred ground of Dreamland)
         Bm         C            G     D
To one's heart's content I'll be free again
 G                              D4   D
(Visions telling secrets on the Dreamland)
       Bm      C
And my fortune ends
       F C     G
in the Wishing Well

G               Cadd9       G
Close your eyes what do you feel?
Bb        F    C        G
Hold your cries keep it still
G           Cadd9    G
Where am I? Why am I here?
Bb      F     C      G
Reasons where
Am        G
Reasons why


 G                               D4   D
(Journey to the sacred ground of Dreamland)
         Bm         C            G     D
To one's heart's content I'll be free again
 G                              D4   D
(Visions telling secrets on the Dreamland)
       Bm      C
And my fortune ends
       F D     A
in the Wishing Well


solo

Obs.: Aí! Eu adaptei o solo para violão!( este solo não está 100% certo 
      mas dá pra ter uma base).
      Para tocar mais parecido com o original toque uma oitava acima e
      dobre com terças.

e|-------------------------------------------------
B|------------7------------------------------------
G|-9b-7-----9---9-7~--7p9-9-9-7--------------------
D|------9-7---------------------9-7----------------
A|----------------------------------10-9--10-9-7---
E|-------------------------------------------------

e|--------------------------------  aí vem uma parte q eu não entendi,
B|--------------------------------  quem tiver a moral tira pra mim.
G|------------------------7-9~----
D|------------------7-8-9---------
A|-10b-9-7-----9-10---------------
E|---------10---------------------

e|-----------------------------------------------------
B|-----------------------------------------------------
G|-7--5-4---7---7-7-5-5--7-7-9-9-----------------------
D|--------7--------------------------------------------
A|-----------------------------------------------------
E|-----------------------------------------------------

e|--------------- depois tem uma virada rápida pra kct 
B|--------------- 
G|-7--5-4---7----
D|--------7------
A|---------------
E|---------------

e|-----------------------------------------------------
B|-----------------------------------------------------
G|-7--5-4---7---7-7-5-5--7-7-9-9-----------------------
D|--------7--------------------------------------------
A|-----------------------------------------------------
E|-----------------------------------------------------

e|--------------- aqui tem outra virada rápida pra kct 
B|--------------- 
G|-7--5-4---7----
D|--------7------
A|---------------
E|---------------


Oh! Who knows the truth in this world?


 G                               D4   D
(Journey to the sacred ground of Dreamland)
         Bm         C            G     D
To one's heart's content I'll be free again
 G                              D4   D
(Visions telling secrets on the Dreamland)
       Bm      C
And my fortune ends 
       F C     G
in the Wishing Well

G
Close your eyes,
Cadd9       G
what do you see?
          Bb   F
Make your dreams
     C Cadd9  G
come true    again
G           Cadd9    G
Where am I? Why am I here?
Bb     F    C       G  (G)
Dreaming is believing,
Cadd9        G
your wishing well
27.658 exibições
    • ½ Tom
    • A
    • Bb
    • B
    • C
    • Db
    • D
    • Eb
    • E
    • F
    • F#
    • G
    • Ab
  • Adicionar à lista

    0 comentários

    Ver todos os comentários

    Conseguiu tocar?

    0 Tocaram 0 Ainda não

    Grave um vídeo tocando Wishing Well (versão 2) e nos envie!

    00:00 / 00:00
    outros vídeos desta música
    repetir qualidade Automático
    Outros vídeos desta música
    00:00 / 00:00
    Automático

    Cifra Club Pro

    Aproveite o Cifra Club com benefícios exclusivos e sem anúncios
    Cifra Club Pro
    Aproveite o Cifra Club com benefícios exclusivos e sem anúncios
    OK