Napoleon

Ani DiFranco

Composição de: Ani DiFranco
tom: F
from Dilate
Tuning: Standard


        
"they told you your music, could reach millions."
------------------------------------------------------
------------------------------------------------------
------------------------------------------------------
--3------7------10--------5------3-------3------------
--3------7------10--------5------3-------3------------
--1------5------8---------3------1----0--1------------
repeat
 
"I hope that you are happy, I hope at least youre having fun." 
 
 
-----------3-------------1--------------
-----------3-------------1--------------
-----------4-------------2--------------
-----5-----5---------3---3--------------
----------------------------------------
----------------------------------------
 
 
 
------1------------1----------------3--------3------------
------1------------1----------------1--------1------------
------0------------0----------------2--------2------------
------------------------------------3--------3------------
--0-------------------------------------------------------
---------------3----------------1---------1---------------

Transcribed by: Scott
Página 1 / 1

Letras e título
Acordes e artista

resetar configurações
OK