Vai Malandra

Anitta

Composição de: Anitta / DJ Yuri Martins / Major Lazer / MC Zaac / Tropkillaz
tom: Bm
[Intro]

[Riff]

E|-------------------------------------|
B|-------------------------------------|
G|-------------------------------------|
D|-8-7----------8-7--------7-7---------|
A|-----10----------10-9-10-----10-10-9-|
E|--------10-10------------------------|

E|-------------------------------------|
B|-------------------------------------|
G|-------------------------------------|
D|--------7----------------------------|
A|-----------10-9----------------------|
E|-10-10-----------10-10---------------|

Vai, malandra, an an
Ê, tá louca, tu brincando com o bumbum
An an, tutudum, an an
Vai, malandra, an an
Ê, tá louca, tu brincando com o bumbum
An an, tutudum, an an

Tá pedindo, an, an
Se prepara, vou dançar, presta atenção
An, an tutudum an, an
Cê aguenta an, an
Se eu te olhar
Descer, quicar até o chão

 G5
Desce, rebola gostoso
             
Empina me olhando
            F#5
Te pego de jeito

 G5
Se eu começar embrazando contigo
   
É taca, taca, taca, taca

 G5
Desço, rebolo gostoso

Empino te olhando
            F#5
Te pego de jeito
 G
Se começar embrazando contigo, é

Gm
  Não vou mais parar
Bb
  Cê vai aguentar
D5
  Não vou mais parar
Bb
  Cê vai aguentar

 G5
Vai, malandra
Show me somethin'
Brazilian baby, you know I want ya
Booty big, sit a glass on it
See my zipper put that ass on it
Hypnotized by the way you shake it
I can't lie I'm tryna see you naked
Anitta, baby, I'm tryna spank it
I can give it to you, can you take it?

       A5       Bb5
Já tá louca, bebendo
     G5          A5           Bb5
Tão solta, envolvendo, eu tô vendo

Não para, não

 (Riff)
Vai, malandra, an an
Ê, tá louca, tu brincando com o bumbum
An an, tutudum, an an
Vai, malandra, an an
Ê, tá louca, tu brincando com o bumbum
An an, tutudum, an an

Tá pedindo, an, an
Se prepara, vou dançar, presta atenção
An, an tutudum an, an
Cê aguenta an, an
Se eu te olhar
Descer, quicar até o chão
Página 1 / 1

Letras e título
Acordes e artista

resetar configurações
OK