Cifra Club

Recomeçar

Anjos de Resgate

Cifra: Principal
exibições 12.438
Tom: D
D                     A/D         G/D                 D
Tão perfeito, tão fiel, ele busca pelos seus.
A/C#      Bm                F#m          G                        A4   A
Em cada respirar, em cada olhar, Deus está a te esperar
D                      A/D                G/D                  D
Ter coragem de parar pra pensar onde chegou.
A/C#  Bm                  F#m     G                          F#4
Imaginar que pode ir além, ser o que Deus sonhou.
F#/A#   Bm                      F#m                 G               D
Per - doar-se é o passo inicial para uma vida de valor.
D   A/C# Bm              F#m          G                                      A
Se redimir, doar e acreditar que Deus nunca te abandonou.

G/B  A/C#  D                  G/B                A/C#
Recomeçar       é estar ferido e suportar,
                   F#4     F#/A#          Bm
É estar cansado e con - tinuar
                         Em            G                A
Em busca do amor, sem culpa e sem dor.
G/B  A/C#  D                  G/B                                A/C#
Recomeçar        é ir em frente, sem medo de errar.
                    F#4      F#/A#           Bm
Deixe os receios pregados na cruz.
                    Em      A        G    A    G/B    A/C#
Faça tua história com Jesus.

D                          A/D                    G/D                   D
Como em cada amanhecer, onde a luz volta a brilhar.
A/C#      Bm                F#m                          G                 F#4
Em cada suspirar, do início ao fim, Deus espera por teu sim.
F#/A#          Bm                 F#m                    G                 D
Os teus problemas, creia, são reais, e Deus sabe a tua dor.
D  A/C#   Bm          F#m                   G                 A
Ele perdoa e cura sem medir, tenha fé: ele é Amor.

G/B  A/C#  D                   G/B                A/C#
Recomeçar       é estar ferido e suportar,
                   F#4     F#/A#          Bm
É estar cansado e con - tinuar
                         Em            G                A
Em busca do amor, sem culpa e sem dor.
G/B  A/C#  D                  G/B                                A/C#
Recomeçar        é ir em frente, sem medo de errar.
                    F#4      F#/A#           Bm
Deixe os receios pregados na cruz.
                    Em      A        D
Faça tua história com Jesus.

G/B             A/C#           D          D/F#   G
Ir pelos caminhos desenhados por Jesus
Em                  D/F#               G                       A     G/B  A/C#
Fará minha história ser reescrita diante da cruz.

Solo: (  D   G/B    A/C#  F#4   F#/A#   Bm  A   G   D/F#  Em  A   G/B   A/C# )

(Refrão)


Solo Principal:

E|------------------------------------------------------------------------|
B|---------------------------------------------------------7b8r7-7~-------|
G|-4/7^9-9/11-9/11~--9/11\9\7--7~--7--9/11~\9-9~--6^7^9-------------9-7-9-|
D|------------------------------------------------------------------------|
A|------------------------------------------------------------------------|
E|------------------------------------------------------------------------|

E|-----------------------------------------------------------------------------------------------------------|
B|----14-15-----15-14----------------------------------------------------------------------------------------|
G|-16-------14~--------16-14-12~--11b12r11~-9-7-9/11-9~----------11-12-11-14-11-12-11-------14b16r14-14-14~~-|
D|-------------------------------------------------------(12)/14----------------------14-12------------------|
A|-----------------------------------------------------------------------------------------------------------|
E|-----------------------------------------------------------------------------------------------------------|

E|---------------------------------------------------------------10----------------|  
B|---------------------------------------------------------------------------------|
G|--------------------------------11--------------------11^12^14----14^12^11^12^14-|
D|-----------------------11^12^14----14^12^11--11^12^14----------------------------|
A|-/10^12^14^12^10^12^14-----------------------------------------------------------|
E|---------------------------------------------------------------------------------|

E|-10^12^14/15/14^12^10----10----------15b17~~~~~--|
B|-------------------------------------------------|
G|----------------------14----14^12^11-------------|
D|-------------------------------------------------|
A|-------------------------------------------------|
E|-------------------------------------------------|
Acordes para:
    Composição: Marcelo DuarteColaboração e revisão:
    • Everton Ribeiro
    • Marcos Andrade
    • Gravadora Codimuc

    0 comentários

      mostrar mais comentários

      Conseguiu tocar?

      3tocaram1ainda não

      Grave um vídeo tocando Recomeçar e mande pra gente!

      00:00 / 00:00
      outros vídeos desta música
      repetirqualidadeautomática
      Outro vídeos desta música
        00:00 / 00:00
        automática
        OK