Cifra Club

Aprenda

I Am The Law

Anthrax

Tab de baixo: Principal
Tuning: Standard
Riff 1 (chorus)
G|---------------------------|
D|-------4-------------------|
A|----2--2-5-----/7-5-4-5--2-|
E|-00-0----3--33-/5-3-2-3--0-|

                    * * *  Riff 2 x2
G|-----------------------------|
D|-----------------------------|
A|-----------------------------|
E|-3-0-33-0-3--3--3--3--3--3---|   
* * ** *         * * ** * Riff 3
G|---------------------------------------|
D|---------------------------------------|
A|---------------------------------------|
E|-3-0-33-0--3-0-33-0--3-0-33-0--3-0-3/6-|  
 
* * ** *  * * ** *  * * ** *  * * Play riff 2Riff 4 (verse)
G|----------------------------|
D|----------------------------|
A|----------------------------|
E|-3-0-33-0--3--3-2-2-1-1-0-0-|   

* * ** *     * *   *   *             
"Fifteen years..."
G|----------------------------|
D|----------------------------|
A|----------------------------|
E|-3-0-33-0--3--3-0-0-0-0-0-0-|   
* * ** *     * *   *   *             
"He was like..."Play riff 3   "DROKK IT"

Play riff 4  

 "With his gun and bike..."Riff 3a
G|---------------------------------------|
D|---------------------------------------|
A|---------------------------------------|
E|-3-0-33-0--3-0-33-0--3-0-33-0--3-0-3/6-|   
* * ** *  * * ** *  * * ** *  * *                                 
"DROKK IT"
G|------------------------------|
D|------------------------------|
A|------------------------------|
E|-3-0-33-0--3-0-33-00--5-3-2-3-|  
 * * ** *  * * ** **  * * * * Play riff 1 
  "Respect the badge..."
Riff 5                                               x2  
G|----------------------------------------------------|----------|
D|----------------------------------------------------|----------|
A|-------2/3-2-0-------8-7---2-----2/3-2-0-------7--8-|--7-7-7-7-|
E|-0-0-0---------1--0--------0-0-0---------1--0-------|----------|  
   
* *            *          * *            *    
"I am the law..."                                  
"I am the law."Play riff 4   
"In the cursed earth..."
Play riff 3a   
Play riff 1    
"Respect the badge..."
Play riff 5    
"I am the law..."

Riff 6
G|----------------------------------------|
D|----------------------------------------|
A|-5-4-3------------------5-3-4-----------|
E|-------333333333333...--------3-3-3-3-3-|
         
************Riff 6a
G|--------------------------|
D|--------------------------|
A|-5-4-3--------5-3-4-------|
E|-------333333-------3-3-3-|   
      
******       * * * Riff 7
G|--------------------------|
D|--------------------------|
A|-3-2-1--------3-1-2-------|
E|-------111111-------1-1-1-|

******       * * *    "Crime..."Riff 8 (solo)

G|---------------------------------|
D|---------------------------------|
A|-2-------3-------4---------------|
E|---2-2-2---2-2-2---3-3-3-3-3-3-3-|
 
    * * *   * * *   * * * * * * *  
Play riff 7    
Play riff 6a   
Riff 6b

G|--------------------------------|
D|--------------------------------|
A|-5--4--3---------5--3--4--------|
E|----------3-3-3-----------3-3-3-|  
          
* * *           * * *    "Oh..."
Riff 7a
G|--------------------------------|
D|--------------------------------|
A|-3--2--1---------3--1--2--------|
E|----------1-1-1-----------1-1-1-|            
* * *           * * *    "Crime..." 
Riff 9      x5
G|-----------|--------------------|
D|-----------|--------------------|
A|-----------|--------------------|
E|-3-0-33-0--|-3-0-33-00--5-3-2-3-|  
 
* * ** *    * * ** **  * * * *Play riff 1    
"Respect the badge..."
Riff 5a
G|----------------------------------------------------|
D|----------------------------------------------------|
A|-------2/3-2-0-------8-7---------2/3-2-0-------7--8-|
E|-0-0-0---------1--0--------0-0-0---------1--0-------|     
* *            *          * *            *   
"I am the law..."
Ending            x5
G|-----------|----------------------|
D|-----------|----------------------|
A|-----------|----------------------|
E|-3-0-33-0--|-3-0-33-00--5-3-2-3-0-|   
* * ** *    * * ** **  * * * *   
"I ..... am ..... the ..... law!"
Composição de Anthrax / Dan Lilker
598 exibições

0 comentários

Ver todos os comentários

Conseguiu tocar?

0 Tocaram 1 Ainda não

Grave um vídeo tocando I Am The Law e nos envie!

00:00 / 00:00
Outros vídeos desta música
Repetir Qualidade Automático
Outros vídeos desta música
00:00 / 00:00
Automático

Cifra Club Pro

Aproveite o Cifra Club com benefícios exclusivos e sem anúncios
Cifra Club Pro
Aproveite o Cifra Club com benefícios exclusivos e sem anúncios
OK