Cifra Club

Nova York

Antiquarius

Cifra: Principal (violão e guitarra)
Tom: G
(intro)

(violão 01)        2x
E |-----3/5-3-------|
B |-----3/5-3-----3-|
G |-----3/5-4-----3-|
D |---------------2-|
A |-5-5-------0H3---|
E |-3-3-------------|

(violão solo)
E |-------------|
B |-10b-7-7-10b-|

G            D/F#                  Em    D
Vi na TV que vai ter sol por esses dias
    C           G/B
Faz tempo que você não vem...
  Am7            D7
Será que vai ser dessa vez...
G              D/F#                Em    D
Hoje eu ouvi aquele som lembrei do tempo
      C          G/B            Am7       D7
Que você morava por aqui e o sorriso mais lindo...
C7(9)               G
era o seu... mesmo quando estava triste
C7(9)                G
com você... qualquer coisa faz sentido
         A7           C7(9)
e quando você volta a paz esta comigo

(refrão)
G        D            Em
  Eu tou sempre por aqui
     C              G
Sabe onde me encontrar
     D       Em            C
Vai ser tão bom, te ver de novo
G       D             Em
  Nova York é logo ali
      C             G
Se quiser vou te buscar
     D       Em             C
Vai ser tão bom, te ver de novo

(nesse arranjo há a necessidade do slide.)

(repetir - intro - violão 01)

violao solo)
E |-------------------------------------8-6------------|
B |-10/12-8-8/11-10-8-3/5---10/12-8-5/8-----3/5--------|
G |-----------------------5---------------------3-3/5\-|

Nana nana (2x)
(repete 1 estrofe)
(repete refrão)

(solo)
  (violão solo slide)                      (violão 01)
E |------------------------------------12-|---------------------|
B |-12\10-12\10-12\10-12\10-12\10---------|---8-----------------|
G |-------------------------------10/12---|7/9--9\7-------------|
D |---------------------------------------|---------7/8\7-5---5-|
A |---------------------------------------|-----------------7---|

  (violão solo slide)                          (violão 01)
E |------------------------------------------|------------------|
B |-12\10-12\10-12\10-12\10-12\10-9/11-9/11\-|----8-------------|
G |------------------------------------------|7/9---10-7/9-5----|

  (violão solo slide)                        (violão 01)
E |-------------------------------------12-|----------------------------------------|
B |-12\10-12\10-12\10-12\10-12\10----------|12rb10-8--------------------------------|
G |-------------------------------10/12----|---------10p8h9--------------5/12-12-12-|
D |----------------------------------------|----------------10-8h9-7h9-5------------|

(repete intro - Nana nana 2x)
(repete refrão)
(repete intro - violão 01)
exibições 1.635
Acordes para:
    Composição: Diogo Macedo / Gustavo Lira / Marlos Vinícius / Tuta Colaboração e revisão:
    • Elberth Moura

    0 comentários

    mostrar mais comentários

    Conseguiu tocar?

    1 tocaram 0 ainda não

    Grave um vídeo tocando Nova York e mande pra gente!

    00:00 / 00:00
    outros vídeos desta música
    repetir qualidade Automático
    Outros vídeos desta música
    00:00 / 00:00
    Automático
    OK