Cifra Club

Cuerpo de Mujer

Antonio Flores

Cifra: Principal (violão e guitarra)
tom: E

E|-----------------------0------7------|
B|-------9r7-5-s9-p7r5-5-----s9----9r5-|
G|-9r4-4-------------------------------|

E
Puedo beber de la arena y la cal
                                 A
Puedo nadar, sobre la lava de un volcán
        E                B
Puedo soñar que tengo el cielo sembrado
       A          E   b|-9r7r5-s5----5s7s9r5-|
de arrecifes de coral g|-----------4---------|

Puedo correr sobre las olas del mar
                               A
Puedo viajar sin moverme del sofá
B|-----7r5-|
G|-4s6-----|
        E            B                     A           E
Puedo jugar     a mezclar los colores y pintar mi realidad
E|-7-5r4s7-5r4-----|
B|-------------5s7-|
                 B                         A        E
          Con la trenza de tu pelo el arco iris retocar
E|-9r7---------------------11-| b|--5--5-|
B|----9r7-5s7-----------------| g|-4--4--|
    A                           E
Tan solo existe una cosa que no puedo comprender e|-------------5-|
E|-8s9--| b|-7b---7b-7r5---|
B|-9s10-| g|----9----------|
   A                                 E
la magia de un laberinto que siempre quedo atrapado en el
e|-17r16-7---10r9-5s7-7-|
       B                     A           E
el garabato de un niño es tu cuerpo de mujer
E|-7---------------------9------9r7--------|
B|-7---------------------10---------10r9---|
G|-8---------------------9---------9-----9-|
                B                        A              E
         rectas curvas curvas rectas imposibles de aprender
B|-5s7r5-5r4---------------------------------|

G  O E A E

       B                     A           E
el garabato de un niño es tu cuerpo de mujer

    A                           E
Tan solo existe una cosa que no puedo comprender
E|-8s9-------------------9r4-------------------------------5-|
B|-9s10-------------9p10------------------------7b---7b-7r5--|
G|------------------9------------------------------9---------|

   A                                 E
la magia de un laberinto que siempre quedo atrapado en el
B|-------------------------------------------------5s7s9r5-|
G|-----------------------------------4s9-------------------|
         B                     A           E
  el garabato de un niño es tu cuerpo de mujer
B|-9r7r5r7-----------------------------------|
G|-------------------------------------------|
       B                         A              E
rectas curvas, curvas rectas imposibles de aprender

G  O B          A        E
E|-4s11--14r12--------------------------------------|
B|-5s12--------14-14r12----------10r9-7r5---5s9r7---|
G|-4s11-----------------13----------------4---------|
                                                   B
                                            el garabato de un niño
      A            E
es tu cuerpo de mujer
       B                     A           E
el garabato de un niño es tu cuerpo de mujer
00:00 / 00:00
Outros vídeos desta música
Repetir
Outros vídeos desta música
Composição de Antonio Flores
378 exibições
    • ½ Tom
    • A
    • Bb
    • B
    • C
    • Db
    • D
    • Eb
    • E
    • F
    • F#
    • G
    • Ab
  • Adicionar à lista

    0 comentários

    Ver todos os comentários

    Entre para oCifra Club PRO

    Tenha acesso a benefícios exclusivos no App e no Site

    • Chega de anúncios

    • Prioridade de compra em lançamentos

    • Mais recursos no app do Afinador

    • Atendimento Prioritário

    • Descontos nos produtos Cifra Club

    • Ajude a produzir mais conteúdo

    00:00 / 00:00

    Cifra Club Pro

    Aproveite o Cifra Club com benefícios exclusivos e sem anúncios
    Cifra Club Pro
    Aproveite o Cifra Club com benefícios exclusivos e sem anúncios
    OK