Cifra Club

El Fantasma de Canterville

Antonio Flores

Cifra: Principal (violão e guitarra)
tom: F

E|--------------------| Riff1
B|--------------------|
G|--------------------|
D|-------3------------|
A|---0-3-----6-3-5----|
E|-1---------------4--|

E|--------------------|
B|--------------------| Riff2
G|-------0------------|
D|-----0-----3-0-2----|
A|---2-------------1--|
E|-3------------------|


Intro: F Bb/F

F                Dm             Bb                    F Bb/F
Yo era un hombre bueno, si hay alguien bueno en este lugar
F                Dm       Bb                F Bb/F
Pague todas mis deudas y mi oportunidad de amar
       C
Sin embargo estoy tirado
Gm           Am      Dm   Bb
y nadie se acuerda de mi
F                                C                  F   Bb/F
Paso a traves de la gente cual fantasma de Canterville


F                Dm      Bb                    F Bb/F
Me han ofendido mucho y nadie dio una explicacion
F              Dm          Bb                F Bb/F
Y si pudiera odiarlos lo haria sin ningun temor
       C
Pero siempre fui un tonto
Gm           Am      Dm   Bb
que creyo en la humanidad
F                         C                     F   Bb/F
ahora que estoy afuera ya se lo que es la libertad           Riff1x4


F                 Dm        Bb                F Bb/F
Y ahora que puedo amarte yo voy amarte de verdad         Riff1x2
F                Dm       Bb                   F Bb/F
Mientras me quede aire, calor nunca te va faltar         Riff1x2
         C
Y jamas volvere a fijarme
      Gm      Am    Dm   Bb
en la cara de los demas
F                      C                F   Bb/F
esa careta idiota que tira y tira para tras        Riff1

        C
E|----------------------------------|
B|----------------------------------|
G|---------7h5--7h5--7h5--7h5--7h5--|
D|-3-6-7------7----7----7----7----7-| (son tresillos rapidísimos)
A|----------------------------------|
E|----------------------------------|

         G                C                 G  C/G
He muerto muchas veces rodando sobre la ciudad           Riff2x2
          Em                     C                G  C/G
pero es mejor ser muerto que un numero que viene y va    Riff2x2
         D                   Am           Bm       Em   C
Y en mi tumba tengo discos y cosas que no me hacen mal
             G             D               Em     C
Despues de muerta nena tu me vendras a visitar
             D                               G  C  G
despues de muerta nena tu me vendras a visitar


E|------------------------------------------------------------------------------|
B|-------1----------------------------------------------------------------------|
G|-----0-----3-0-2-----------0---------------------------------------0----------|
D|---2-------------1-------0-----3-0-2----------4--------2---------0---(3-0-2--)|
A|-3---------------------2-------------1----5-5---5--3-3---3-----2-----(------1)|
E|---------------------3---------------------------------------3----------------|
00:00 / 00:00
Outros vídeos desta música
Repetir
Outros vídeos desta música
Composição de Antonio Flores
9 exibições
    • ½ Tom
    • A
    • Bb
    • B
    • C
    • Db
    • D
    • Eb
    • E
    • F
    • F#
    • G
    • Ab
  • Adicionar à lista

    0 comentários

    Ver todos os comentários

    Entre para oCifra Club PRO

    Tenha acesso a benefícios exclusivos no App e no Site

    • Chega de anúncios

    • Prioridade de compra em lançamentos

    • Mais recursos no app do Afinador

    • Atendimento Prioritário

    • Descontos nos produtos Cifra Club

    • Ajude a produzir mais conteúdo

    00:00 / 00:00

    Cifra Club Pro

    Aproveite o Cifra Club com benefícios exclusivos e sem anúncios
    Cifra Club Pro
    Aproveite o Cifra Club com benefícios exclusivos e sem anúncios
    OK