Cifra Club

Fé ciega, faca afilada

Antonio Flores

Cifra: Principal (violão e guitarra)
tom: C
e|------3-3-3-5-6----6-6-6-5-3-----3-3-3-5-6-----| (x2)

C                      F                   C
De qué me sirve preguntar a dónde va el camino
C                     F                 C
Si no me puede contestar la voz del adivino
F7                                         C
La fe, la fe, la fe, la fe, la fe, faca afilada
F7                                       C
Penetra ciega al corazón, la fe, faca afilada

Riff1
E|------------0---------------------1---------------0---------------------3-|
B|--------------2-0---------3-3-3-1-------------------2-0---------3-3-3-1---|
G|-2-2-2-2--2-------2-2---2--------------2-2-2-2--2-------2-2---2-----------|
D|--------------------------------------------------------------------------|
A|--------------------------------------------------------------------------|
E|--------------------------------------------------------------------------|

Riff2
E|-----------------------------------------------------|
B|-----------------------------------------------------|
G|-------------------------------------------------0---|
D|----------0-3-2-0---------0-3-2-0--------0-3-2-0-----|
A|--------2---------------2--------------2-------------|
E|--3--3------------3---3-----------3--3---------------|

C                      F                      C
Que brille sola con su luz y yo mientras tranquila
C                        F                 C
Que corte en dos el corazón amor de doble filo
F7                                         C
La fe, la fe, la fe, la fe, la fe, faca afilada
F7                                            C
Hermano, hermana, hermano, yo, la fe, faca afilada

Riff1+Riff2

C                      F                  C
Plantar el trigo y rehacer el pan de cada día
C                   F                  C
Beber el vino y renacer la luz de cada día
F7                                         C
La fe, la fe, la fe, la fe, la fe, faca afilada
F7                                         C
Siguiendo el hilo de la fe, la fe, faca afilada

Riff1+Riff2

C                       F                   C
Dejar la luz brillar detrás del pan de cada día
C                       F                   C
Dejar la fe crecer con luz, la luz de cada día
F7                                         C
La fe, la fe, la fe, la fe, la fe, faca afilada
F7                                      C
Penetra ciega al corazón la fe, faca afilada

Riff1+Riff2

C                           F                  C
Hermano, hermana, hermano y yo la fe, faca afilada  (faca afilada)
C                       F                  C
La fe, la fe, la fe, la fe, la fe, faca afilada  (Hermano, hermana, hermano)
C                                   F                              C
De qué me sirve preguntar a dónde va el camino (camino, camino, camino)
C                           F                  C
Hermano, hermana, hermano y yo, la fe, faca afilada (la fe, la fe, la fe)
C                      F                   C
Siguiendo el hilo de la fe, la fe, faca afilada
C
La fe, la fe, la fe, la fe, la fe, la fe, la fe, la fe, faca afilada...
00:00 / 00:00
Outros vídeos desta música
Repetir
Outros vídeos desta música
Composição de Antonio Flores
7 exibições
    • ½ Tom
    • A
    • Bb
    • B
    • C
    • Db
    • D
    • Eb
    • E
    • F
    • F#
    • G
    • Ab
  • Adicionar à lista

    0 comentários

    Ver todos os comentários

    Entre para oCifra Club PRO

    Tenha acesso a benefícios exclusivos no App e no Site

    • Chega de anúncios

    • Prioridade de compra em lançamentos

    • Mais recursos no app do Afinador

    • Atendimento Prioritário

    • Descontos nos produtos Cifra Club

    • Ajude a produzir mais conteúdo

    00:00 / 00:00

    Cifra Club Pro

    Aproveite o Cifra Club com benefícios exclusivos e sem anúncios
    Cifra Club Pro
    Aproveite o Cifra Club com benefícios exclusivos e sem anúncios
    OK