Cifra Club

Metal On Metal

Anvil

Cifra: Principal (violão e guitarra)
Tom: F#
Intro:
E|--------------------|
B|--------------------|
G|--------------------|
D|--------------------|
A|--4---4/7~~4---4-3~~|
E|--2-0-2/5~~2-0-2-1~~|

Riff 1:
E|-------------------------------------------|play
B|-------------------------------------------|2x's
G|-------------------------------------------|
D|-------------------------------------------|
A|--4---4/7--7-4---4/9--9-4---4/7--7-4---4-3-|
E|--2-0-2/5--5-2-0-2/7--7-2-0-2/5--5-2-0-2-1-|

Riff 2:
E|----------------------------------------------|play
B|----------------------------------------------|2x's
G|----------------------------------------------|
D|----------------------------------------------|
A|------------------------------------------3~~~|
E|--2-0-2/5-5~~2-0-2/7~~~~~2-0-2/5-5~~2-0-2-1~~~|

E|-------------------------------------------|
B|-------------------------------------------|
G|-------------------------------------------|
D|-------------------------------------------|
A|--4---4/7--7-4---4/9--9-4---4/7--7-4---4-3-|
E|--2-0-2/5--5-2-0-2/7--7-2-0-2/5--5-2-0-2-1-|


E|----------------------------------------------|
B|----------------------------------------------|
G|----------------------------------------------|
D|----------------------------------------------|
A|------------------------------------------3~~~|
E|--2-0-2/5-5~~2-0-2/7~~~~~2-0-2/5-5~~2-0-2-1~~~|

Riff 3:
E|----------------------------------------------|play
B|----------------------------------------------|2x's
G|----------------------------------------------|
D|--11-11-11-11-11--13-14-11-11-11-11-11--11-10-|
A|---9--9--9--9--9--11-12--9--9--9--9--9---9--8-|
E|----------------------------------------------|

E|----------------------------------------------|play
B|----------------------------------------------|2x's
G|----------------------------------------------|
D|----------------------------------------------|
A|------------------------------------------3~~~|
E|--2-0-2/5-5~~2-0-2/7~~~~~2-0-2/5-5~~2-0-2-1~~~|

Riff 4
E|-----------------------------------------|
B|-----------------------------------------|
G|--4-4-4-4\2/4-4-4-4\2/4-4-4-4\2----------|
D|--4-4-4-4\2/4-4-4-4\2/4-4-4-4\2----------|
A|--2-2-2-2-0-2-2-2-2-0-2-2-2-2-0--4---4/7-|
E|---------------------------------2-0-2/5-|

E|--------------------------------------------|
B|--------------------------------------------|
G|--4-4-4-4\2/4-4-4-4\2/4-4-4-4\2-------------|
D|--4-4-4-4\2/4-4-4-4\2/4-4-4-4\2-------------|
A|--2-2-2-2-0-2-2-2-2-0-2-2-2-2-0--4---4/7--7-|
E|---------------------------------2-0-2/5--5-|

E|--------------------------------|
B|--------------------------------|
G|--------------------------------|
D|--------------------------------|
A|--4---4/9--9-4---4/7--7-4---4-3-|
E|--2-0-2/7--7-2-0-2/5--5-2-0-2-1-|

E|---------------------------------------------|
B|---------------------------------------------| (2x)
G|---------------------------------------------|
D|---------------------------------------------|
A|---------------------------------------------|
E|-2-0-2/5-5~~2-0-2/7~~~~~2-0-2/5-5~~2-0-2-1~~~|

E|----------------------------------------------|
B|----------------------------------------------| (2x)
G|----------------------------------------------|
D|--11-11-11-11-11--13-14-11-11-11-11-11--11-10-|
A|---9--9--9--9--9--11-12--9--9--9--9--9---9--8-|
E|----------------------------------------------|

 Solo:

E|--------------------------------13----------|
B|-13--13--13--13--13-----------13---16p13----|
G|-15B-15B-15B-15B-15B-13-15-15B|-----------15-|
D|--------------------------------------------|
A|--------------------------------------------|
E|--------------------------------------------|

E|-----------------------------------------|
B|-----------------------------------------|
G|-15B(17)-13----15----15B(17)-13-15p13----|
D|------------15----15------------------14-|
A|-----------------------------------------|
E|-----------------------------------------|

E|-----13-------13--------------------------------|
B|-------13--------13---16-16B-18-16-18-16--------|
G|-15B|-----15B|--------x--------------------17-15B-|
D|------------------------------------------------|
A|------------------------------------------------|
E|------------------------------------------------|

E|--------13----------------------------------------|
B|-----13----13-16p13----13-15p13----13----15-13----|
G|-15B|----------------15----------15----15-------14-|
D|--------------------------------------------------|
A|--------------------------------------------------|
E|--------------------------------------------------|

E|-------------------------------------------|
B|-------------------------------------------|
G|----------------------13-------------------|
D|-15----13-15----13-15----15-13-15-13-15----|
A|----15-------15-------------------------13-|
E|-------------------------------------------|

E|-------------------------------|
B|--------------16---------------|
G|-------13-15B|----15B-13-15B|----|
D|-13h15----------------------14-|
A|-------------------------------|
E|-------------------------------|

E|-----13131313-16p13-13131313-13--|
B|-13--13131313-------13131313-16B-|
G|-15B|-----------------------------|
D|---------------------------------|
A|---------------------------------|
E|---------------------------------|

E|------------------------|
B|-18-16-18-16------------|
G|-------------15-15B(17)-|
D|------------------------|
A|------------------------|
E|------------------------|

E|-----13131313-16p13-13131313-----------------------|
B|-13--13131313-------13131313-13--------------------|
G|-15B|----------------------------15-13----15-13-----|
D|--------------------------------------15--------14-|
A|---------------------------------------------------|
E|---------------------------------------------------|

repetir o começo
exibições 475
Acordes para:
    Colaboração e revisão:
    • Raphael Johan
    • Gabriella

    0 comentários

    mostrar mais comentários

    Conseguiu tocar?

    0 tocaram 0 ainda não

    Grave um vídeo tocando Metal On Metal e mande pra gente!

    00:00 / 00:00
    outros vídeos desta música
    repetir qualidade Automático
    Outros vídeos desta música
    00:00 / 00:00
    Automático
    OK