A Tree For Trials

The Appleseed Cast

Composição de: Aaron Pillar / The Appleseed Cast
tom: G
tuning: drop d


play x 5
e -------------------------------------------------------------------------|
B ---8-------8-------8---------8-------8-------8---------8------8------8---|
G -----11------11----------------11------11----------------11-----11-------|
D -0-------0-------0---------10-----10------10---------9------9------9----0|
A ------------------------------------------------------------------------0|
D ------------------------------------------------------------------------0|

outro
e -------------------------------------------------------------------------|
B -------------------------------------------------------------------------|
G -------------------------------------------------------------------------|
D --10-----5-----0---------------------------------------------------------|
A --10-----5-----0---------------------------------------------------------|
D --10-----5-----0---------------------------------------------------------|
Página 1 / 1

Letras e título
Acordes e artista

resetar configurações
OK