Cifra Club

La Casa Azul

Aquiles Baez

Cifra: Principal (violão e guitarra)
Tom: D
(3/4)

          |   |   |     |   |    |      |   |   |
E|-|---||--3-------3---|---2h3-5/(7)-7-|-0-------0----|
B|-|-0-||------0-----0-|----------0----|-----0--------|
G|-|---||*---0---0-----|---------------|---0---0---0--|
D|-|---||*-2-----------|-0-------------|--------------|
A|-|---||--------------|---------------|-3------------|
E|-|---||--------------|---------------|--------------|

    |  |  |       |   |   |     |   |   |     |   |   |
E|-|----0--2---3-|-----0-------|-------------|-------------|
B|-|---3-3-2-----|-1---1---1---|-----0-1-----|-3-------3---|
G|-|--0----0-0---|---0---0---0-|---2-------2-|-----2-------|
D|-|-------------|-------------|---4-----4---|---3---3---3-|
A|-|-2-----1-----|-0-----------|-3-----------|-------------|
E|-|-------------|-------------|-------------|-1-----------|

    |   |   |     |   |   |     |   |   |     |   |   |
E|-|-------------|-0-------2-3-|-----0---2---|-2---5---2---|
B|-|-----3-------|-1---1-------|-3---3---3---|-3---3---3---|
G|-|-0-------0---|-0-0---0-----|---2---2---2-|-2-2---2---2-|
D|-|---0---0---0-|-------------|-------------|-------------|
A|-|-------------|-------------|-3-----------|-2-----------|
E|-|-1-----------|-0-----------|-------------|-------------|

    |   |   |     |   |   |     |   |   |     |   |   |
E|-|-3-------3---|-2---0---2---|-2-------2---|-2---0---2---|
B|-|-----0-------|-4---4---4---|-5---5---5---|-1---1---1---|
G|-|---0---0---0-|-4-4---4---4-|---3---3---3-|---2---2---2-|
D|-|-------------|-------------|-------------|-------------|
A|-|-------------|-4-----------|-4-----------|-------------|
E|-|-0-----------|-------------|-------------|-2-----------|

    |   |   |       |   |   |       |     |     |   |   |   |
E|-|-2------------||-----0---2/(4)-|-4/(5)-5/(7)-7-|-7---------8-|
B|-|-----0-----0--||-4---0---------|---------------|-5---5---5---|
G|-|---2---2-----*||-1-1---1-2/(4)-|-4/(5)-5/(7)-7-|-5-5---5-----|
D|-|-1-----------*||---------------|---------------|-------------|
A|-|---------2----||---------------|---------------|-0-----------|
E|-|--------------||-0-------------|---------------|-------------|

    |   |   |      |    |   |     |   |   |     |   |   |
E|-|-0---2-----12-|-10--\8--\7---|\5--/7---8---|-8-------7h8p7-5-|
B|-|--------------|--------------|---------5---|-8---8-----------|
G|-|---2---2------|-11--\9--\7---|\5--/7-----0-|---0---0---------|
D|-|--------------|----0---0---0-|---0---0---0-|-----------------|
A|-|-0-------0----|--------------|-------------|-7---------------|
E|-|--------------|--------------|-------------|-----------------|

    |   |   |   |   |   |     |     |   |     |   |   |
E|-|-7---------|-1---0-------|---------------|---------------|
B|-|-8---8---5-|---------3---|-1-3-1-0-------|-0---0-----0---|
G|-|---0---0---|---2---2---2-|-----------1---|-2---2---2-----|
D|-|-0---------|-0-----------|-------------0-|---2---2-------|
A|-|-----------|-----3---2---|---------------|-0-------------|
E|-|-----------|-------------|-0-------0-----|---------------|

    |   |   |      |   |   |       |   |   |     |   |   |
E|-|---------3----|-2---0---2/(3)-|-3---2---0---|-0---0---0---|
B|-|-1-----1----0-|-4---4---4/(5)-|-5---5---2---|-1---1---1---|
G|-|-----0--------|-4-4---4-------|---3---3---3-|---2---2---2-|
D|-|---2----------|---------------|-------------|-------------|
A|-|-0------------|-4-------------|-4-----------|-------------|
E|-|--------------|---------------|-------------|-2-----------|

    |   |   |       |   |   |     |   |    |      |   |   |
E|-|--------------||-3-------3---|---2h3-5/(7)-7-|-0-------0---|
B|-|-4---0-----0--||-----0-----0-|----------0----|-----0-------|
G|-|---2---2-----*||---0---0-----|---------------|---0---0---0-|
D|-|---------1---*||-2-----------|-0-------------|-------------|
A|-|-2------------||-------------|---------------|-3-----------|
E|-|--------------||-------------|---------------|-------------|

    |  |  |       |   |   |     |   |   |     |   |   |
E|-|----0--2---3-|-----0-------|-------------|-------------|
B|-|---3-3-2-----|-1---1---1---|-----0-1-----|-3-------3---|
G|-|--0----0-0---|---0---0---0-|---2-------2-|-----2-------|
D|-|-------------|-------------|---4-----4---|---3---3---3-|
A|-|-2-----1-----|-0-----------|-3-----------|-------------|
E|-|-------------|-------------|-------------|-1-----------|

    |   |   |     |   |   |     |   |   |     |   |   |
E|-|-------------|-0-------2-3-|-----0---2---|-2---5---2---|
B|-|-----3-------|-1---1-------|-3---3---3---|-3---3---3---|
G|-|-0-------0---|-0-0---0-----|---2---2---2-|-2-2---2---2-|
D|-|---0---0---0-|-------------|-------------|-------------|
A|-|-------------|-------------|-3-----------|-2-----------|
E|-|-1-----------|-0-----------|-------------|-------------|

    |   |   |     |   |   |     |   |       |
E|-|-3-------0---|-8---7---5---|-3---2h3p2---0-2-|
B|-|-----0-------|-5---5---5---|-----------------|
G|-|---0---0---0-|---5---5---5-|---2-------2-----|
D|-|-------------|-------------|-0---------------|
A|-|-------------|-0-----------|-----------------|
E|-|-0-----------|-------------|-----------------|

    |   |   |     |   |   |     |   |   |     |    |  |
E|-|-3-------3---|-3-------3---|---------2---|------5-----||
B|-|-------4---4-|-------4---4-|-------0---0-|------0-----||
G|-|-----3-------|-----4-------|-----2-----2-|------2-----||
D|-|---5---------|---5---------|---0---------|------0-----||
A|-|-6-----------|-3-----------|-------------|------------||
E|-|-------------|-------------|-3-----------|-3----------||

                                                 Tempo Beats
                                                 /---------\
                                                 |   |   |
        / E-|--------|-------|-------|----(0----|--------0===|
        | B-|--------|-------|-------|----)1----|------1=----|
  String| G-|----|--5h8--|--8p5--|----(2----|----2=------|
  Tuning| D-|--------|-------|-------|----)2----|------------|
        | A-|--------|-------|-------|----(0----|0==---------|
        \ D-|--------|-------|-------|----------|------------|

             Harmonic Hammer   Pull   Arpeggiate   Sustain
                        on     off

Remember that a "C" followed by a number indicates a bar in that fret.
exibições 340
Acordes para:
    Colaboração e revisão:
    • Maurício moreira

    0 comentários

    mostrar mais comentários

    Conseguiu tocar?

    0 tocaram 0 ainda não

    Grave um vídeo tocando La Casa Azul e mande pra gente!

    00:00 / 00:00
    outros vídeos desta música
    repetir qualidade Automático
    Outros vídeos desta música
    00:00 / 00:00
    Automático
    OK