Cifra Club

Aprenda

Don't Sit Down 'Cause I've Moved Your Chair

Arctic Monkeys

Tab de baixo: Principal
G|-----------------------------|   |-----------------------------|
D|-----------------------------|   |-----------------------------|
A|-----------------------------|x11|-----------------------------|
D|0--0-2-0--0-2-0--0-2-0-3-2-1-|   |0--0-2-0--0-2-0--0-2-0-3-----|

Chorus:
G|---------------------------------------------------------5h7-|
D|---------------------------------------------------3-5/7-----|
A|-------------1---1-1--1-1-1-1--5--5-5-3-5-5-3-5--5-----------|
D|3--3--3-3-3--------------------------------------------------|

G|-------------------------------------------------------------|
D|-------------------------------------------------------------|
A|-------------1---1-1--1-1-1-1--5--5-5-3-5-5-3-5--5-3-5-------|
D|3--3--3-3-3--------------------------------------------------|

Verse:
G|------------------------------------------------------------|
D|--------------------------------------------------------3h5-|
A|----------------------------------------------------3-5-----|
D|0--0-2-0--0-2-0--0-2-0-3-2-1-0--0-2-0--0-2-0--0-2-0---------|

G|------------------------------------------------------------|
D|----------------------------------------------------3-------|
A|------------------------------------------------------3h5---|
D|0--0-2-0--0-2-0--0-2-0-3-2-1-0--0-2-0--0-2-0--0-2-0---------|

G|-----------------------------------------------------------|
D|--------------------------------------------------------3--|
A|----------------------------------------------------3h5----|
D|0--0-2-0--0-2-0--0-2-0-3-2-1-0--0-2-0--0-2-0--0-2-0--------|

G|------------------------------------------------------------|
D|------------------------------------------------------------|
A|------------------------------------------------------------|
D|0--0-2-0--0-2-0--0-2-0-3-2-1-0--0-2-0--0-2-0----------------|

Chorus:
G|----------------------------------------------------------------|
D|---------------------------------------------------3-5-7--7-5---|
A|-------------1---1-1--1-1-1-1--5--5-5-3-5-5-3-5--5------------7-|
D|3--3--3-3-3-----------------------------------------------------|

G|-------------------------------------------------------------|
D|--------------------------------------3h5-7---3h5-7---3h5-7--|
A|-------------1---1-1--1-1-1-1--5--3h5-------5-------5--------|
D|3--3--3-3-3--------------------------------------------------|

G|----------------------------------------------------------------|
D|---------------------------------------------------3-5-7--7-5---|
A|-------------1---1-1--1-1-1-1--5--5-5-3-5-5-3-5--5------------7-|
D|3--3--3-3-3-----------------------------------------------------|

G|---------------------------------|
D|---------------------------------|
A|-------------1---1-1--1----------|
D|3--3--3-3-3----------------------|

G|-------------------------------------------------------------|
D|-------------------------------------------------------------|
A|-------------------------------------------------------------|
D|0-0-2-0-0-0-2-0-0-0-2-0-0-0-2-0-0-2-0-0-0-2-0-0-0-2-0-3-2-1--|

G|-------------------------------------------------------------|
D|-------------------------------------------------------------|
A|-------------------------------------------------------------|
D|0-0-2-0-0-0-2-0-0-0-2-0-0-0-2-0-0-2-0-0-0-2-0-0-0-2-0-3-2-1--|
Composição de Alex Turner / Arctic Monkeys
Colaboração e revisão:
  • Lucas Idalino
1.113 exibições

0 comentários

Mostrar mais comentários

Conseguiu tocar?

0 Tocaram 0 Ainda não

Grave um vídeo tocando Don't Sit Down 'Cause I've Moved Your Chair e mande pra gente!

00:00 / 00:00
outros vídeos desta música
repetir qualidade Automático
Outros vídeos desta música
00:00 / 00:00
Automático

Cifra Club Pro

Aproveite o Cifra Club com benefícios exclusivos e sem anúncios
7 dias grátis
Cifra Club Pro
Aproveite o Cifra Club com benefícios exclusivos e sem anúncios
7 dias grátis
OK