Cifra Club

Aprenda

Fake Tales Of San Francisco

Arctic Monkeys

Cifra: Versão 6 (violão e guitarra)
Já pensou em usar uma coleção de roupas do Cifra Club? Responda as perguntas abaixo e nos ajude nessa missão! →
tom: G
Song Fake Tales of San Fransisco

Drum Intro

Intro Riff x 2
Guitar 1
e|----------------------------------------------------------------|
B|----------------------------------------------------------------|
G|----------------------------------------------------------------|
D|----------------------------------------------------------------|
A|-----5-----5-7-5-----5-----5-7-5-----5-----5-7-5----5-7-9-7-5---|
E|--7-----7---------7-----7---------7-----7---------7-------------|

Guitar 2 x 2
e|-----7-7-------5-----7-7-------5-----7-7-------5-----7-7--------|
B|-----7-7-------5-----7-7-------5-----7-7-------5-----7-7--------|
G|-----8-8-------5-----8-8-------5-----8-8-------5-----8-8--------|
D|----------------------------------------------------------------|
A|----------------------------------------------------------------|
E|----------------------------------------------------------------|

Verse x 4
Guitar 1
e|----------------------------------------------------------------|
B|----------------------------------------------------------------|
G|----------------------------------------------------------------|
D|--------------------------------------------------------4-7-4---|
A|-----5-----5-7-5-----5-----5-7-5-----5-----5-7-5----5-7-------7-|
E|--7-----7---------7-----7---------7-----7---------7-------------|

Guitar 2 x 4
e|-----7-7-------5-----7-7-------5-----7-7-------5-----7-7--------|
B|-----7-7-------5-----7-7-------5-----7-7-------5-----7-7--------|
G|-----8-8-------5-----8-8-------5-----8-8-------5-----8-8--------|
D|----------------------------------------------------------------|
A|----------------------------------------------------------------|
E|----------------------------------------------------------------|

Chorus - Guitars Silent
Bass fill at the end of each line except the last line.

E|---------------------------------------------------------0-3-5-7|

Verse 2 x 4 
Both guitars
e|----------------------------------------------------------------|
B|----------------------------------------------------------------|
G|----------------------------------------------------------------|
D|--------------------------------------------------------4-7-4---|
A|-----5-----5-7-5-----5-----5-7-5-----5-----5-7-5----5-7-------7-|
E|--7-----7---------7-----7---------7-----7---------7-------------|

Chorus 2 As Before

Bridge Guitars 1
e|----------------------------------------------------------------|
B|----------------------------------------------------------------|
G|--------------------------------9999999999999999----------------|
D|9999999999999999555555555555555599999999999999999999999999999999|
A|9999999999999999555555555555555577777777777777779999999999999999|
E|77777777777777773333333333333333----------------7777777777777777|
Guitar 2
e|--------------------------------------------------------------------|
B|--------------------------------------------------------------------|
G|--------------------------------------------------------------------|
D|9999999999999999555555555555555522222222222222229999999999999999----|
A|9999999999999999555555555555555522222222222222229999999999999999-7-9|
E|777777777777777733333333333333330000000000000000777777777777777710--|

Verse 
e|----------------------------------------------------------------|
B|----------------------------------------------------------------|
G|--------------------------------9999999999999999----------------|
D|9999999999999999555555555555555599999999999999999999999999999999|
A|9999999999999999555555555555555577777777777777779999999999999999|
E|77777777777777773333333333333333----------------7777777777777777|
Guitar 2
e|--------------------------------------------------------------------|
B|--------------------------------------------------------------------|
G|--------------------------------------------------------------------|
D|9999999999999999555555555555555522222222222222229999999999999999----|
A|9999999999999999555555555555555522222222222222229999999999999999-7-9|
E|777777777777777733333333333333330000000000000000777777777777777710--|

Chorus x2
e|----------------------------------------------------------------|
B|----------------------------------------------------------------|
G|--------------------------------9999999999999999----------------|
D|9999999999999999555555555555555599999999999999999999999999999999|
A|9999999999999999555555555555555577777777777777779999999999999999|
E|77777777777777773333333333333333----------------7777777777777777|
Guitar 2
e|--------------------------------------------------------------------|
B|--------------------------------------------------------------------|
G|--------------------------------------------------------------------|
D|9999999999999999555555555555555522222222222222229999999999999999----|
A|9999999999999999555555555555555522222222222222229999999999999999----|
E|7777777777777777333333333333333300000000000000007777777777777777----|


Outro x 2
Guitar 1 join when drums join in
e|-----------|
B|-----------|
G|-----------|
D|-----------|
A|----5------|
E|--7---7=---|
End With Drums

Guitar 2          
e|--x--7-7-------5-xx--7-7-------5-xx--7-7-------5-xx--7-7-------5|
B|--x--7-7-------5-xx--7-7-------5-xx--7-7-------5-xx--7-7-------5|
G|--x--8-8-------5-xx--8-8-------5-xx--8-8-------5-xx--8-8-------5|
D|-------------------------------------|--------------------------|
A|-------------------------------------|--------------------------|
E|-------------------------------------|--------------------------|
                                      /|\
Finish on xxx877 let ring


Bass through out song

E|---------------------------------------------------------0-3-5-7|

"Fake Tales Of San Francisco"

Fake Tales of San Francisco
Echo through the room
More point to a wedding disco
Without a bride or groom

There's a super cool band yeah
With their trilbies and their glasses of white wine
And all the weekend rock stars in the toilets
Practicing their lines

I don't want to hear you
(Kick me out, kick me out)
I don't want to hear you no
(Kick me out, kick me out)
I don't want to hear you no
(Kick me out, kick me out)
I don't want to hear you no
I don't want to hear you no

Fake Tales of San Francisco
Echo through the air
And there's a few bored faces in the back
All wishing they weren't there

And as the microphone squeaks
A young girl's telephone beeps
Yeah she's dashing for the exit
Oh, she's running to the streets outside
"Oh you've saved me," she screams down the line
"The band were fucking wank
And I'm not having a nice time"

I don't want to hear you
(Kick me out, kick me out)
I don't want to hear you no
(Kick me out, kick me out)
Yeah, please bet that it's amazing
Although all that's left is the proof
That love's not only blind but deaf

He talks of San Francisco, he's from Hunter's Bar
I don't quite know the distance
But I'm sure that's far
Yeah, I'm sure that's pretty far

Yeah, I'd love to tell you all my problem
You're not from New York City, you're from Rotherham
So get off the bandwagon, and put down the handbook
Yeah, yeah, yeah, yeah, yeah.

[x4]
Get off the bandwagon and put down the handbook
Composição de Arctic Monkeys
1.341 exibições
    • ½ Tom
    • A
    • Bb
    • B
    • C
    • Db
    • D
    • Eb
    • E
    • F
    • F#
    • G
    • Ab
  • Adicionar à lista

    0 comentários

    Ver todos os comentários

    Conseguiu tocar?

    0 Tocaram 0 Ainda não

    Grave um vídeo tocando Fake Tales Of San Francisco e nos envie!

    00:00 / 00:00
    Outros vídeos desta música
    Repetir Qualidade Automático
    Outros vídeos desta música
    00:00 / 00:00
    Automático

    Cifra Club Pro

    Aproveite o Cifra Club com benefícios exclusivos e sem anúncios
    Cifra Club Pro
    Aproveite o Cifra Club com benefícios exclusivos e sem anúncios
    OK